  0
SECTION
  2
HEADER
  9
$ACADVER
  1
AC1024
  9
$ACADMAINTVER
 70
     6
  9
$DWGCODEPAGE
  3
ANSI_1252
  9
$INSBASE
 10
0.0
 20
0.0
 30
0.0
  9
$EXTMIN
 10
1.000000000000000E+20
 20
1.000000000000000E+20
 30
1.000000000000000E+20
  9
$EXTMAX
 10
-1.000000000000000E+20
 20
-1.000000000000000E+20
 30
-1.000000000000000E+20
  9
$LIMMIN
 10
0.0
 20
0.0
  9
$LIMMAX
 10
12.0
 20
9.0
  9
$ORTHOMODE
 70
     0
  9
$REGENMODE
 70
     1
  9
$FILLMODE
 70
     1
  9
$QTEXTMODE
 70
     0
  9
$MIRRTEXT
 70
     1
  9
$LTSCALE
 40
1.0
  9
$ATTMODE
 70
     1
  9
$TEXTSIZE
 40
0.2
  9
$TRACEWID
 40
0.05
  9
$TEXTSTYLE
  7
Standard
  9
$CLAYER
  8
0
  9
$CELTYPE
  6
ByLayer
  9
$CECOLOR
 62
   256
  9
$CELTSCALE
 40
1.0
  9
$DISPSILH
 70
     0
  9
$DIMSCALE
 40
1.0
  9
$DIMASZ
 40
0.18
  9
$DIMEXO
 40
0.0625
  9
$DIMDLI
 40
0.38
  9
$DIMRND
 40
0.0
  9
$DIMDLE
 40
0.0
  9
$DIMEXE
 40
0.18
  9
$DIMTP
 40
0.0
  9
$DIMTM
 40
0.0
  9
$DIMTXT
 40
0.18
  9
$DIMCEN
 40
0.09
  9
$DIMTSZ
 40
0.0
  9
$DIMTOL
 70
     0
  9
$DIMLIM
 70
     0
  9
$DIMTIH
 70
     1
  9
$DIMTOH
 70
     1
  9
$DIMSE1
 70
     0
  9
$DIMSE2
 70
     0
  9
$DIMTAD
 70
     0
  9
$DIMZIN
 70
     0
  9
$DIMBLK
  1

  9
$DIMASO
 70
     1
  9
$DIMSHO
 70
     1
  9
$DIMPOST
  1

  9
$DIMAPOST
  1

  9
$DIMALT
 70
     0
  9
$DIMALTD
 70
     2
  9
$DIMALTF
 40
25.4
  9
$DIMLFAC
 40
1.0
  9
$DIMTOFL
 70
     0
  9
$DIMTVP
 40
0.0
  9
$DIMTIX
 70
     0
  9
$DIMSOXD
 70
     0
  9
$DIMSAH
 70
     0
  9
$DIMBLK1
  1

  9
$DIMBLK2
  1

  9
$DIMSTYLE
  2
Standard
  9
$DIMCLRD
 70
     0
  9
$DIMCLRE
 70
     0
  9
$DIMCLRT
 70
     0
  9
$DIMTFAC
 40
1.0
  9
$DIMGAP
 40
0.09
  9
$DIMJUST
 70
     0
  9
$DIMSD1
 70
     0
  9
$DIMSD2
 70
     0
  9
$DIMTOLJ
 70
     1
  9
$DIMTZIN
 70
     0
  9
$DIMALTZ
 70
     0
  9
$DIMALTTZ
 70
     0
  9
$DIMUPT
 70
     0
  9
$DIMDEC
 70
     4
  9
$DIMTDEC
 70
     4
  9
$DIMALTU
 70
     2
  9
$DIMALTTD
 70
     2
  9
$DIMTXSTY
  7
Standard
  9
$DIMAUNIT
 70
     0
  9
$DIMADEC
 70
     0
  9
$DIMALTRND
 40
0.0
  9
$DIMAZIN
 70
     0
  9
$DIMDSEP
 70
    46
  9
$DIMATFIT
 70
     3
  9
$DIMFRAC
 70
     0
  9
$DIMLDRBLK
  1

  9
$DIMLUNIT
 70
     2
  9
$DIMLWD
 70
    -2
  9
$DIMLWE
 70
    -2
  9
$DIMTMOVE
 70
     0
  9
$DIMFXL
 40
1.0
  9
$DIMFXLON
 70
     0
  9
$DIMJOGANG
 40
0.7853981633974483
  9
$DIMTFILL
 70
     0
  9
$DIMTFILLCLR
 70
     0
  9
$DIMARCSYM
 70
     0
  9
$DIMLTYPE
  6

  9
$DIMLTEX1
  6

  9
$DIMLTEX2
  6

  9
$DIMTXTDIRECTION
 70
     0
  9
$LUNITS
 70
     2
  9
$LUPREC
 70
     4
  9
$SKETCHINC
 40
0.1
  9
$FILLETRAD
 40
0.5
  9
$AUNITS
 70
     0
  9
$AUPREC
 70
     0
  9
$MENU
  1
.
  9
$ELEVATION
 40
0.0
  9
$PELEVATION
 40
0.0
  9
$THICKNESS
 40
0.0
  9
$LIMCHECK
 70
     0
  9
$CHAMFERA
 40
0.5
  9
$CHAMFERB
 40
0.5
  9
$CHAMFERC
 40
1.0
  9
$CHAMFERD
 40
0.0
  9
$SKPOLY
 70
     0
  9
$TDCREATE
 40
2459236.436276944
  9
$TDUCREATE
 40
2459236.394610278
  9
$TDUPDATE
 40
2459236.436277025
  9
$TDUUPDATE
 40
2459236.394610359
  9
$TDINDWG
 40
0.0000000116
  9
$TDUSRTIMER
 40
0.0000000116
  9
$USRTIMER
 70
     1
  9
$ANGBASE
 50
0.0
  9
$ANGDIR
 70
     0
  9
$PDMODE
 70
     0
  9
$PDSIZE
 40
0.0
  9
$PLINEWID
 40
0.0
  9
$SPLFRAME
 70
     0
  9
$SPLINETYPE
 70
     6
  9
$SPLINESEGS
 70
     8
  9
$HANDSEED
  5
71
  9
$SURFTAB1
 70
     6
  9
$SURFTAB2
 70
     6
  9
$SURFTYPE
 70
     6
  9
$SURFU
 70
     6
  9
$SURFV
 70
     6
  9
$UCSBASE
  2

  9
$UCSNAME
  2

  9
$UCSORG
 10
0.0
 20
0.0
 30
0.0
  9
$UCSXDIR
 10
1.0
 20
0.0
 30
0.0
  9
$UCSYDIR
 10
0.0
 20
1.0
 30
0.0
  9
$UCSORTHOREF
  2

  9
$UCSORTHOVIEW
 70
     0
  9
$UCSORGTOP
 10
0.0
 20
0.0
 30
0.0
  9
$UCSORGBOTTOM
 10
0.0
 20
0.0
 30
0.0
  9
$UCSORGLEFT
 10
0.0
 20
0.0
 30
0.0
  9
$UCSORGRIGHT
 10
0.0
 20
0.0
 30
0.0
  9
$UCSORGFRONT
 10
0.0
 20
0.0
 30
0.0
  9
$UCSORGBACK
 10
0.0
 20
0.0
 30
0.0
  9
$PUCSBASE
  2

  9
$PUCSNAME
  2

  9
$PUCSORG
 10
0.0
 20
0.0
 30
0.0
  9
$PUCSXDIR
 10
1.0
 20
0.0
 30
0.0
  9
$PUCSYDIR
 10
0.0
 20
1.0
 30
0.0
  9
$PUCSORTHOREF
  2

  9
$PUCSORTHOVIEW
 70
     0
  9
$PUCSORGTOP
 10
0.0
 20
0.0
 30
0.0
  9
$PUCSORGBOTTOM
 10
0.0
 20
0.0
 30
0.0
  9
$PUCSORGLEFT
 10
0.0
 20
0.0
 30
0.0
  9
$PUCSORGRIGHT
 10
0.0
 20
0.0
 30
0.0
  9
$PUCSORGFRONT
 10
0.0
 20
0.0
 30
0.0
  9
$PUCSORGBACK
 10
0.0
 20
0.0
 30
0.0
  9
$USERI1
 70
     0
  9
$USERI2
 70
     0
  9
$USERI3
 70
     0
  9
$USERI4
 70
     0
  9
$USERI5
 70
     0
  9
$USERR1
 40
0.0
  9
$USERR2
 40
0.0
  9
$USERR3
 40
0.0
  9
$USERR4
 40
0.0
  9
$USERR5
 40
0.0
  9
$WORLDVIEW
 70
     1
  9
$SHADEDGE
 70
     3
  9
$SHADEDIF
 70
    70
  9
$TILEMODE
 70
     1
  9
$MAXACTVP
 70
    64
  9
$PINSBASE
 10
0.0
 20
0.0
 30
0.0
  9
$PLIMCHECK
 70
     0
  9
$PEXTMIN
 10
1.000000000000000E+20
 20
1.000000000000000E+20
 30
1.000000000000000E+20
  9
$PEXTMAX
 10
-1.000000000000000E+20
 20
-1.000000000000000E+20
 30
-1.000000000000000E+20
  9
$PLIMMIN
 10
0.0
 20
0.0
  9
$PLIMMAX
 10
12.0
 20
9.0
  9
$UNITMODE
 70
     0
  9
$VISRETAIN
 70
     1
  9
$PLINEGEN
 70
     0
  9
$PSLTSCALE
 70
     1
  9
$TREEDEPTH
 70
  3020
  9
$CMLSTYLE
  2
Standard
  9
$CMLJUST
 70
     0
  9
$CMLSCALE
 40
1.0
  9
$PROXYGRAPHICS
 70
     1
  9
$MEASUREMENT
 70
     0
  9
$CELWEIGHT
370
    -1
  9
$ENDCAPS
280
     0
  9
$JOINSTYLE
280
     0
  9
$LWDISPLAY
290
     1
  9
$INSUNITS
 70
     0
  9
$HYPERLINKBASE
  1

  9
$STYLESHEET
  1

  9
$XEDIT
290
     1
  9
$CEPSNTYPE
380
     0
  9
$PSTYLEMODE
290
     1
  9
$FINGERPRINTGUID
  2
{E26D8936-57F8-4537-9D4F-D01DFDABB53E}
  9
$VERSIONGUID
  2
{FAEB1C32-E019-11D5-929B-00C0DF256EC4}
  9
$EXTNAMES
290
     1
  9
$PSVPSCALE
 40
0.0
  9
$OLESTARTUP
290
     0
  9
$SORTENTS
280
   127
  9
$INDEXCTL
280
     0
  9
$HIDETEXT
280
     1
  9
$XCLIPFRAME
280
     2
  9
$HALOGAP
280
     0
  9
$OBSCOLOR
 70
   257
  9
$OBSLTYPE
280
     0
  9
$INTERSECTIONDISPLAY
280
     0
  9
$INTERSECTIONCOLOR
 70
   257
  9
$DIMASSOC
280
     2
  9
$PROJECTNAME
  1

  9
$CAMERADISPLAY
290
     0
  9
$LENSLENGTH
 40
50.0
  9
$CAMERAHEIGHT
 40
0.0
  9
$STEPSPERSEC
 40
2.0
  9
$STEPSIZE
 40
6.0
  9
$3DDWFPREC
 40
2.0
  9
$PSOLWIDTH
 40
0.25
  9
$PSOLHEIGHT
 40
4.0
  9
$LOFTANG1
 40
1.570796326794897
  9
$LOFTANG2
 40
1.570796326794897
  9
$LOFTMAG1
 40
0.0
  9
$LOFTMAG2
 40
0.0
  9
$LOFTPARAM
 70
     7
  9
$LOFTNORMALS
280
     1
  9
$LATITUDE
 40
37.795
  9
$LONGITUDE
 40
-122.394
  9
$NORTHDIRECTION
 40
0.0
  9
$TIMEZONE
 70
 -8000
  9
$LIGHTGLYPHDISPLAY
280
     1
  9
$TILEMODELIGHTSYNCH
280
     1
  9
$CMATERIAL
347
3C
  9
$SOLIDHIST
280
     1
  9
$SHOWHIST
280
     1
  9
$DWFFRAME
280
     2
  9
$DGNFRAME
280
     2
  9
$REALWORLDSCALE
290
     1
  9
$INTERFERECOLOR
 62
   256
  9
$CSHADOW
280
     0
  9
$SHADOWPLANELOCATION
 40
0.0
  0
ENDSEC
  0
SECTION
  2
CLASSES
  0
CLASS
  1
ACDBDICTIONARYWDFLT
  2
AcDbDictionaryWithDefault
  3
ObjectDBX Classes
 90
        0
 91
        4
280
     0
281
     0
  0
CLASS
  1
VISUALSTYLE
  2
AcDbVisualStyle
  3
ObjectDBX Classes
 90
     4095
 91
        4
280
     0
281
     0
  0
CLASS
  1
MATERIAL
  2
AcDbMaterial
  3
ObjectDBX Classes
 90
     1153
 91
        4
280
     0
281
     0
  0
CLASS
  1
SUN
  2
AcDbSun
  3
SCENEOE
 90
     1024
 91
        4
280
     0
281
     0
  0
ENDSEC
  0
SECTION
  2
TABLES
  0
TABLE
  2
VPORT
  5
8
330
0
100
AcDbSymbolTable
 70
     1
  0
VPORT
  5
29
330
8
100
AcDbSymbolTableRecord
100
AcDbViewportTableRecord
  2
*Active
 70
     0
 10
0.0
 20
0.0
 11
1.0
 21
1.0
 12
0.0
 22
0.0
 13
0.0
 23
0.0
 14
0.5
 24
0.5
 15
0.5
 25
0.5
 16
0.0
 26
0.0
 36
1.0
 17
499.73740456321
 27
-500.5244060477798
 37
0.0
 40
386.0587996665854
 41
2.500001317484041
 42
50.0
 43
0.0
 44
0.0
 50
0.0
 51
0.0
 71
     0
 72
   100
 73
     1
 74
     3
 75
     0
 76
     0
 77
     0
 78
     0
281
     0
 65
     1
110
0.0
120
0.0
130
0.0
111
1.0
121
0.0
131
0.0
112
0.0
122
1.0
132
0.0
 79
     0
146
0.0
 60
     3
 61
     5
292
     1
282
     1
141
0.0
142
0.0
 63
   250
361
3F
  0
ENDTAB
  0
TABLE
  2
LTYPE
  5
5
330
0
100
AcDbSymbolTable
 70
     1
  0
LTYPE
  5
14
330
5
100
AcDbSymbolTableRecord
100
AcDbLinetypeTableRecord
  2
ByBlock
 70
     0
  3

 72
    65
 73
     0
 40
0.0
  0
LTYPE
  5
15
330
5
100
AcDbSymbolTableRecord
100
AcDbLinetypeTableRecord
  2
ByLayer
 70
     0
  3

 72
    65
 73
     0
 40
0.0
  0
LTYPE
  5
16
330
5
100
AcDbSymbolTableRecord
100
AcDbLinetypeTableRecord
  2
Continuous
 70
     0
  3
Solid line
 72
    65
 73
     0
 40
0.0
  0
ENDTAB
  0
TABLE
  2
LAYER
  5
2
330
0
100
AcDbSymbolTable
 70
     2
  0
LAYER
  5
10
330
2
100
AcDbSymbolTableRecord
100
AcDbLayerTableRecord
  2
0
 70
     0
 62
     7
  6
Continuous
370
    -3
390
F
347
3E
  0
LAYER
  5
40
330
2
100
AcDbSymbolTableRecord
100
AcDbLayerTableRecord
  2
logo
 70
     0
 62
     7
  6
Continuous
370
    -3
390
F
347
3E
  0
ENDTAB
  0
TABLE
  2
STYLE
  5
3
330
0
100
AcDbSymbolTable
 70
     1
  0
STYLE
  5
11
330
3
100
AcDbSymbolTableRecord
100
AcDbTextStyleTableRecord
  2
Standard
 70
     0
 40
0.0
 41
1.0
 50
0.0
 71
     0
 42
0.2
  3
txt
  4

  0
ENDTAB
  0
TABLE
  2
VIEW
  5
6
330
0
100
AcDbSymbolTable
 70
     0
  0
ENDTAB
  0
TABLE
  2
UCS
  5
7
330
0
100
AcDbSymbolTable
 70
     0
  0
ENDTAB
  0
TABLE
  2
APPID
  5
9
330
0
100
AcDbSymbolTable
 70
     1
  0
APPID
  5
12
330
9
100
AcDbSymbolTableRecord
100
AcDbRegAppTableRecord
  2
ACAD
 70
     0
  0
ENDTAB
  0
TABLE
  2
DIMSTYLE
  5
A
330
0
100
AcDbSymbolTable
 70
     1
100
AcDbDimStyleTable
  0
DIMSTYLE
105
27
330
A
100
AcDbSymbolTableRecord
100
AcDbDimStyleTableRecord
  2
Standard
 70
     0
178
     0
340
11
  0
ENDTAB
  0
TABLE
  2
BLOCK_RECORD
  5
1
330
0
100
AcDbSymbolTable
 70
     2
  0
BLOCK_RECORD
  5
1F
330
1
100
AcDbSymbolTableRecord
100
AcDbBlockTableRecord
  2
*Model_Space
340
22
 70
     0
280
     1
281
     0
  0
BLOCK_RECORD
  5
1B
330
1
100
AcDbSymbolTableRecord
100
AcDbBlockTableRecord
  2
*Paper_Space
340
1E
 70
     0
280
     1
281
     0
  0
BLOCK_RECORD
  5
23
330
1
100
AcDbSymbolTableRecord
100
AcDbBlockTableRecord
  2
*Paper_Space0
340
26
 70
     0
280
     1
281
     0
  0
BLOCK_RECORD
  5
49
330
1
100
AcDbSymbolTableRecord
100
AcDbBlockTableRecord
  2
block 2
340
0
102
{BLKREFS
331
4A
102
}
 70
     0
280
     1
281
     0
  0
ENDTAB
  0
ENDSEC
  0
SECTION
  2
BLOCKS
  0
BLOCK
  5
20
330
1F
100
AcDbEntity
  8
0
100
AcDbBlockBegin
  2
*Model_Space
 70
     0
 10
0.0
 20
0.0
 30
0.0
  3
*Model_Space
  1

  0
ENDBLK
  5
21
330
1F
100
AcDbEntity
  8
0
100
AcDbBlockEnd
  0
BLOCK
  5
1C
330
1B
100
AcDbEntity
 67
     1
  8
0
100
AcDbBlockBegin
  2
*Paper_Space
 70
     0
 10
0.0
 20
0.0
 30
0.0
  3
*Paper_Space
  1

  0
ENDBLK
  5
1D
330
1B
100
AcDbEntity
 67
     1
  8
0
100
AcDbBlockEnd
  0
BLOCK
  5
24
330
23
100
AcDbEntity
  8
0
100
AcDbBlockBegin
  2
*Paper_Space0
 70
     0
 10
0.0
 20
0.0
 30
0.0
  3
*Paper_Space0
  1

  0
ENDBLK
  5
25
330
23
100
AcDbEntity
  8
0
100
AcDbBlockEnd
  0
BLOCK
  5
4B
330
49
100
AcDbEntity
  8
0
100
AcDbBlockBegin
  2
block 2
 70
     0
 10
0.0
 20
0.0
 30
0.0
  3
block 2
  1

  0
SPLINE
  5
4D
330
49
100
AcDbEntity
  8
logo
370
     0
100
AcDbSpline
210
0.0
220
0.0
230
1.0
 70
    11
 71
     3
 72
    92
 73
    88
 74
     0
 42
0.0000000001
 43
0.0000000001
 12
1.0
 22
0.0
 32
0.0
 13
1.0
 23
0.0
 33
0.0
 40
0.0
 40
0.0
 40
0.0
 40
0.0
 40
1.0
 40
1.0
 40
1.0
 40
2.0
 40
2.0
 40
2.0
 40
3.0
 40
3.0
 40
3.0
 40
4.0
 40
4.0
 40
4.0
 40
5.0
 40
5.0
 40
5.0
 40
6.0
 40
6.0
 40
6.0
 40
7.0
 40
7.0
 40
7.0
 40
8.0
 40
8.0
 40
8.0
 40
9.0
 40
9.0
 40
9.0
 40
10.0
 40
10.0
 40
10.0
 40
11.0
 40
11.0
 40
11.0
 40
12.0
 40
12.0
 40
12.0
 40
13.0
 40
13.0
 40
13.0
 40
14.0
 40
14.0
 40
14.0
 40
15.0
 40
15.0
 40
15.0
 40
16.0
 40
16.0
 40
16.0
 40
17.0
 40
17.0
 40
17.0
 40
18.0
 40
18.0
 40
18.0
 40
19.0
 40
19.0
 40
19.0
 40
20.0
 40
20.0
 40
20.0
 40
21.0
 40
21.0
 40
21.0
 40
22.0
 40
22.0
 40
22.0
 40
23.0
 40
23.0
 40
23.0
 40
24.0
 40
24.0
 40
24.0
 40
25.0
 40
25.0
 40
25.0
 40
26.0
 40
26.0
 40
26.0
 40
27.0
 40
27.0
 40
27.0
 40
28.0
 40
28.0
 40
28.0
 40
29.0
 40
29.0
 40
29.0
 40
29.0
 10
689.2356157640297
 20
-642.9207223013091
 30
0.0
 10
689.2356157640297
 20
-642.9207223013091
 30
0.0
 10
689.2356157640297
 20
-635.7718753456084
 30
0.0
 10
689.2356157640297
 20
-635.7718753456084
 30
0.0
 10
689.2356157640297
 20
-635.7718753456084
 30
0.0
 10
715.0460778799079
 20
-635.730379091623
 30
0.0
 10
715.0460778799079
 20
-635.730379091623
 30
0.0
 10
715.0460778799079
 20
-635.730379091623
 30
0.0
 10
715.0460778799079
 20
-658.3405174807158
 30
0.0
 10
715.0460778799079
 20
-658.3405174807158
 30
0.0
 10
711.0852064788505
 20
-661.4993400148105
 30
0.0
 10
706.997505477244
 20
-663.8746281531548
 30
0.0
 10
702.7851028885198
 20
-665.468509908771
 30
0.0
 10
698.5746155118832
 20
-667.062391664389
 30
0.0
 10
694.2521946287234
 20
-667.858268535685
 30
0.0
 10
689.8174146363508
 20
-667.858268535685
 30
0.0
 10
683.8323768587361
 20
-667.858268535685
 30
0.0
 10
678.3938129304697
 20
-666.5761406882084
 30
0.0
 10
673.504063666327
 20
-664.0138002049807
 30
0.0
 10
668.6121863887511
 20
-661.4514597217512
 30
0.0
 10
664.9213598922197
 20
-657.7440354298487
 30
0.0
 10
662.427540951212
 20
-652.8957833553195
 30
0.0
 10
659.9337220102025
 20
-648.0475312807903
 30
0.0
 10
658.6869189403697
 20
-642.6298229208114
 30
0.0
 10
658.6869189403697
 20
-636.6447862884052
 30
0.0
 10
658.6869189403697
 20
-630.7157163985521
 30
0.0
 10
659.9254227578185
 20
-625.1796905143892
 30
0.0
 10
662.4068992209213
 20
-620.0403262580603
 30
0.0
 10
664.8860348692488
 20
-614.9011748030352
 30
0.0
 10
668.4540749907501
 20
-611.0835194364427
 30
0.0
 10
673.1091243712599
 20
-608.5899137739179
 30
0.0
 10
677.7641337559289
 20
-606.0960953100894
 30
0.0
 10
683.1258763992992
 20
-604.8492671700369
 30
0.0
 10
689.1939067007625
 20
-604.8492671700369
 30
0.0
 10
693.5997662260179
 20
-604.8492671700369
 30
0.0
 10
697.581279457947
 20
-605.5619640408513
 30
0.0
 10
701.1433405257012
 20
-606.989647979226
 30
0.0
 10
704.7052094082501
 20
-608.4173319176007
 30
0.0
 10
707.4960990243708
 20
-610.4040448776068
 30
0.0
 10
709.5181373874966
 20
-612.9540428852906
 30
0.0
 10
711.5423037640539
 20
-615.5038280916742
 30
0.0
 10
713.0802190713894
 20
-618.8288484430104
 30
0.0
 10
714.1316705081608
 20
-622.9291039393029
 30
0.0
 10
714.1316705081608
 20
-622.9291039393029
 30
0.0
 10
706.858120597446
 20
-624.924116150105
 30
0.0
 10
706.858120597446
 20
-624.924116150105
 30
0.0
 10
705.9437132256971
 20
-621.8212603585616
 30
0.0
 10
704.8090564637332
 20
-619.3817062268681
 30
0.0
 10
703.4501070860333
 20
-617.6090713771628
 30
0.0
 10
702.0930729204192
 20
-615.8361986949167
 30
0.0
 10
700.1540477622748
 20
-614.4149238268546
 30
0.0
 10
697.6312671574597
 20
-613.3487893014026
 30
0.0
 10
695.1082944324335
 20
-612.2826547759487
 30
0.0
 10
692.3112335773585
 20
-611.7485235067106
 30
0.0
 10
689.2356157640297
 20
-611.7485235067106
 30
0.0
 10
685.5490452943632
 20
-611.7485235067106
 30
0.0
 10
682.3631963852549
 20
-612.3096805413661
 30
0.0
 10
679.6761739884332
 20
-613.4319946106734
 30
0.0
 10
676.9869832505465
 20
-614.5540958786805
 30
0.0
 10
674.8196015700141
 20
-616.0296601101145
 30
0.0
 10
673.1714551668992
 20
-617.858261702373
 30
0.0
 10
671.5216263108559
 20
-619.6870760959355
 30
0.0
 10
670.2413934723209
 20
-621.6967467134218
 30
0.0
 10
669.3269861005738
 20
-623.8850073900667
 30
0.0
 10
667.7746003019001
 20
-627.6526544505741
 30
0.0
 10
666.9995976535338
 20
-631.7403546700189
 30
0.0
 10
666.9995976535338
 20
-636.1459555172114
 30
0.0
 10
666.9995976535338
 20
-641.5760308709032
 30
0.0
 10
667.9346269119887
 20
-646.1210410893891
 30
0.0
 10
669.8049379174099
 20
-649.7784570752083
 30
0.0
 10
671.6752489228311
 20
-653.436061780947
 30
0.0
 10
674.3976165064396
 20
-656.1522816872566
 30
0.0
 10
677.9720406682391
 20
-657.9249165369602
 30
0.0
 10
681.5464648300385
 20
-659.6975513866655
 30
0.0
 10
685.341138382053
 20
-660.5849328180302
 30
0.0
 10
689.3603173511474
 20
-660.5849328180302
 30
0.0
 10
692.8515361877544
 20
-660.5849328180302
 30
0.0
 10
696.2597830832674
 20
-659.9135447086883
 30
0.0
 10
699.5847834880733
 20
-658.5690660795844
 30
0.0
 10
702.9098252263884
 20
-657.2245874504806
 30
0.0
 10
705.4325643993216
 20
-655.7905194730301
 30
0.0
 10
707.1490200336048
 20
-654.2672877498389
 30
0.0
 10
707.1490200336048
 20
-654.2672877498389
 30
0.0
 10
707.1490200336048
 20
-642.9207223013091
 30
0.0
 10
707.1490200336048
 20
-642.9207223013091
 30
0.0
 10
707.1490200336048
 20
-642.9207223013091
 30
0.0
 10
689.2356157640297
 20
-642.9207223013091
 30
0.0
 10
689.2356157640297
 20
-642.9207223013091
 30
0.0
  0
HATCH
  5
4E
330
49
100
AcDbEntity
  8
logo
 62
    12
420
 13898006
100
AcDbHatch
 10
0.0
 20
0.0
 30
0.0
210
0.0
220
0.0
230
1.0
  2
SOLID
 70
     1
 71
     0
 91
        1
 92
        1
 93
        1
 72
     4
 94
        3
 73
     0
 74
     1
 95
       92
 96
       88
 40
0.0
 40
0.0
 40
0.0
 40
0.0
 40
1.0
 40
1.0
 40
1.0
 40
2.0
 40
2.0
 40
2.0
 40
3.0
 40
3.0
 40
3.0
 40
4.0
 40
4.0
 40
4.0
 40
5.0
 40
5.0
 40
5.0
 40
6.0
 40
6.0
 40
6.0
 40
7.0
 40
7.0
 40
7.0
 40
8.0
 40
8.0
 40
8.0
 40
9.0
 40
9.0
 40
9.0
 40
10.0
 40
10.0
 40
10.0
 40
11.0
 40
11.0
 40
11.0
 40
12.0
 40
12.0
 40
12.0
 40
13.0
 40
13.0
 40
13.0
 40
14.0
 40
14.0
 40
14.0
 40
15.0
 40
15.0
 40
15.0
 40
16.0
 40
16.0
 40
16.0
 40
17.0
 40
17.0
 40
17.0
 40
18.0
 40
18.0
 40
18.0
 40
19.0
 40
19.0
 40
19.0
 40
20.0
 40
20.0
 40
20.0
 40
21.0
 40
21.0
 40
21.0
 40
22.0
 40
22.0
 40
22.0
 40
23.0
 40
23.0
 40
23.0
 40
24.0
 40
24.0
 40
24.0
 40
25.0
 40
25.0
 40
25.0
 40
26.0
 40
26.0
 40
26.0
 40
27.0
 40
27.0
 40
27.0
 40
28.0
 40
28.0
 40
28.0
 40
29.0
 40
29.0
 40
29.0
 40
29.0
 10
689.2356157640297
 20
-642.9207223013091
 10
689.2356157640297
 20
-642.9207223013091
 10
689.2356157640297
 20
-635.7718753456084
 10
689.2356157640297
 20
-635.7718753456084
 10
689.2356157640297
 20
-635.7718753456084
 10
715.0460778799079
 20
-635.730379091623
 10
715.0460778799079
 20
-635.730379091623
 10
715.0460778799079
 20
-635.730379091623
 10
715.0460778799079
 20
-658.3405174807158
 10
715.0460778799079
 20
-658.3405174807158
 10
711.0852064788505
 20
-661.4993400148105
 10
706.997505477244
 20
-663.8746281531548
 10
702.7851028885198
 20
-665.468509908771
 10
698.5746155118832
 20
-667.062391664389
 10
694.2521946287234
 20
-667.858268535685
 10
689.8174146363508
 20
-667.858268535685
 10
683.8323768587361
 20
-667.858268535685
 10
678.3938129304697
 20
-666.5761406882084
 10
673.504063666327
 20
-664.0138002049807
 10
668.6121863887511
 20
-661.4514597217512
 10
664.9213598922197
 20
-657.7440354298487
 10
662.427540951212
 20
-652.8957833553195
 10
659.9337220102025
 20
-648.0475312807903
 10
658.6869189403697
 20
-642.6298229208114
 10
658.6869189403697
 20
-636.6447862884052
 10
658.6869189403697
 20
-630.7157163985521
 10
659.9254227578185
 20
-625.1796905143892
 10
662.4068992209213
 20
-620.0403262580603
 10
664.8860348692488
 20
-614.9011748030352
 10
668.4540749907501
 20
-611.0835194364427
 10
673.1091243712599
 20
-608.5899137739179
 10
677.7641337559289
 20
-606.0960953100894
 10
683.1258763992992
 20
-604.8492671700369
 10
689.1939067007625
 20
-604.8492671700369
 10
693.5997662260179
 20
-604.8492671700369
 10
697.581279457947
 20
-605.5619640408513
 10
701.1433405257012
 20
-606.989647979226
 10
704.7052094082501
 20
-608.4173319176007
 10
707.4960990243708
 20
-610.4040448776068
 10
709.5181373874966
 20
-612.9540428852906
 10
711.5423037640539
 20
-615.5038280916742
 10
713.0802190713894
 20
-618.8288484430104
 10
714.1316705081608
 20
-622.9291039393029
 10
714.1316705081608
 20
-622.9291039393029
 10
706.858120597446
 20
-624.924116150105
 10
706.858120597446
 20
-624.924116150105
 10
705.9437132256971
 20
-621.8212603585616
 10
704.8090564637332
 20
-619.3817062268681
 10
703.4501070860333
 20
-617.6090713771628
 10
702.0930729204192
 20
-615.8361986949167
 10
700.1540477622748
 20
-614.4149238268546
 10
697.6312671574597
 20
-613.3487893014026
 10
695.1082944324335
 20
-612.2826547759487
 10
692.3112335773585
 20
-611.7485235067106
 10
689.2356157640297
 20
-611.7485235067106
 10
685.5490452943632
 20
-611.7485235067106
 10
682.3631963852549
 20
-612.3096805413661
 10
679.6761739884332
 20
-613.4319946106734
 10
676.9869832505465
 20
-614.5540958786805
 10
674.8196015700141
 20
-616.0296601101145
 10
673.1714551668992
 20
-617.858261702373
 10
671.5216263108559
 20
-619.6870760959355
 10
670.2413934723209
 20
-621.6967467134218
 10
669.3269861005738
 20
-623.8850073900667
 10
667.7746003019001
 20
-627.6526544505741
 10
666.9995976535338
 20
-631.7403546700189
 10
666.9995976535338
 20
-636.1459555172114
 10
666.9995976535338
 20
-641.5760308709032
 10
667.9346269119887
 20
-646.1210410893891
 10
669.8049379174099
 20
-649.7784570752083
 10
671.6752489228311
 20
-653.436061780947
 10
674.3976165064396
 20
-656.1522816872566
 10
677.9720406682391
 20
-657.9249165369602
 10
681.5464648300385
 20
-659.6975513866655
 10
685.341138382053
 20
-660.5849328180302
 10
689.3603173511474
 20
-660.5849328180302
 10
692.8515361877544
 20
-660.5849328180302
 10
696.2597830832674
 20
-659.9135447086883
 10
699.5847834880733
 20
-658.5690660795844
 10
702.9098252263884
 20
-657.2245874504806
 10
705.4325643993216
 20
-655.7905194730301
 10
707.1490200336048
 20
-654.2672877498389
 10
707.1490200336048
 20
-654.2672877498389
 10
707.1490200336048
 20
-642.9207223013091
 10
707.1490200336048
 20
-642.9207223013091
 10
707.1490200336048
 20
-642.9207223013091
 10
689.2356157640297
 20
-642.9207223013091
 10
689.2356157640297
 20
-642.9207223013091
 97
        0
 97
        0
 75
     2
 76
     1
 98
        0
  0
SPLINE
  5
4F
330
49
100
AcDbEntity
  8
logo
370
     0
100
AcDbSpline
210
0.0
220
0.0
230
1.0
 70
    11
 71
     3
 72
    44
 73
    40
 74
     0
 42
0.0000000001
 43
0.0000000001
 12
1.0
 22
0.0
 32
0.0
 13
1.0
 23
0.0
 33
0.0
 40
0.0
 40
0.0
 40
0.0
 40
0.0
 40
1.0
 40
1.0
 40
1.0
 40
2.0
 40
2.0
 40
2.0
 40
3.0
 40
3.0
 40
3.0
 40
4.0
 40
4.0
 40
4.0
 40
5.0
 40
5.0
 40
5.0
 40
6.0
 40
6.0
 40
6.0
 40
7.0
 40
7.0
 40
7.0
 40
8.0
 40
8.0
 40
8.0
 40
9.0
 40
9.0
 40
9.0
 40
10.0
 40
10.0
 40
10.0
 40
11.0
 40
11.0
 40
11.0
 40
12.0
 40
12.0
 40
12.0
 40
13.0
 40
13.0
 40
13.0
 40
13.0
 10
738.6619197433229
 20
-666.8193725769488
 30
0.0
 10
738.6619197433229
 20
-666.8193725769488
 30
0.0
 10
738.6619197433229
 20
-622.6797008127887
 30
0.0
 10
738.6619197433229
 20
-622.6797008127887
 30
0.0
 10
738.6619197433229
 20
-622.6797008127887
 30
0.0
 10
745.3951670436436
 20
-622.6797008127887
 30
0.0
 10
745.3951670436436
 20
-622.6797008127887
 30
0.0
 10
745.3951670436436
 20
-622.6797008127887
 30
0.0
 10
745.3951670436436
 20
-629.3712377694483
 30
0.0
 10
745.3951670436436
 20
-629.3712377694483
 30
0.0
 10
747.1137506913583
 20
-626.2394410007673
 30
0.0
 10
748.6993334995732
 20
-624.1758819500083
 30
0.0
 10
750.1540434817161
 20
-623.1782942645132
 30
0.0
 10
751.6087534638591
 20
-622.1808945597622
 30
0.0
 10
753.2090195647525
 20
-621.6820883067376
 30
0.0
 10
754.954651048567
 20
-621.6820883067376
 30
0.0
 10
757.4773889067401
 20
-621.6820883067376
 30
0.0
 10
760.03972988026
 20
-622.4862395655855
 30
0.0
 10
762.643779917049
 20
-624.0927014612935
 30
0.0
 10
762.643779917049
 20
-624.0927014612935
 30
0.0
 10
760.066755650847
 20
-631.0336415444654
 30
0.0
 10
760.066755650847
 20
-631.0336415444654
 30
0.0
 10
758.2381758571573
 20
-629.9530365304436
 30
0.0
 10
756.4093389651989
 20
-629.4127340234318
 30
0.0
 10
754.580524221703
 20
-629.4127340234318
 30
0.0
 10
752.9470611112683
 20
-629.4127340234318
 30
0.0
 10
751.477880637789
 20
-629.9053690386863
 30
0.0
 10
750.1748980133489
 20
-630.8882982548675
 30
0.0
 10
748.8740434023439
 20
-631.8712274710488
 30
0.0
 10
747.9449746263508
 20
-633.2365606277963
 30
0.0
 10
747.3901796361806
 20
-634.9821697120842
 30
0.0
 10
746.558977589626
 20
-637.6421859931543
 30
0.0
 10
746.1433765663478
 20
-640.5516054007367
 30
0.0
 10
746.1433765663478
 20
-643.7104279348332
 30
0.0
 10
746.1433765663478
 20
-643.7104279348332
 30
0.0
 10
746.1433765663478
 20
-666.8193725769488
 30
0.0
 10
746.1433765663478
 20
-666.8193725769488
 30
0.0
 10
746.1433765663478
 20
-666.8193725769488
 30
0.0
 10
738.6619197433229
 20
-666.8193725769488
 30
0.0
 10
738.6619197433229
 20
-666.8193725769488
 30
0.0
  0
HATCH
  5
50
330
49
100
AcDbEntity
  8
logo
 62
    12
420
 13898006
100
AcDbHatch
 10
0.0
 20
0.0
 30
0.0
210
0.0
220
0.0
230
1.0
  2
SOLID
 70
     1
 71
     0
 91
        1
 92
        1
 93
        1
 72
     4
 94
        3
 73
     0
 74
     1
 95
       44
 96
       40
 40
0.0
 40
0.0
 40
0.0
 40
0.0
 40
1.0
 40
1.0
 40
1.0
 40
2.0
 40
2.0
 40
2.0
 40
3.0
 40
3.0
 40
3.0
 40
4.0
 40
4.0
 40
4.0
 40
5.0
 40
5.0
 40
5.0
 40
6.0
 40
6.0
 40
6.0
 40
7.0
 40
7.0
 40
7.0
 40
8.0
 40
8.0
 40
8.0
 40
9.0
 40
9.0
 40
9.0
 40
10.0
 40
10.0
 40
10.0
 40
11.0
 40
11.0
 40
11.0
 40
12.0
 40
12.0
 40
12.0
 40
13.0
 40
13.0
 40
13.0
 40
13.0
 10
738.6619197433229
 20
-666.8193725769488
 10
738.6619197433229
 20
-666.8193725769488
 10
738.6619197433229
 20
-622.6797008127887
 10
738.6619197433229
 20
-622.6797008127887
 10
738.6619197433229
 20
-622.6797008127887
 10
745.3951670436436
 20
-622.6797008127887
 10
745.3951670436436
 20
-622.6797008127887
 10
745.3951670436436
 20
-622.6797008127887
 10
745.3951670436436
 20
-629.3712377694483
 10
745.3951670436436
 20
-629.3712377694483
 10
747.1137506913583
 20
-626.2394410007673
 10
748.6993334995732
 20
-624.1758819500083
 10
750.1540434817161
 20
-623.1782942645132
 10
751.6087534638591
 20
-622.1808945597622
 10
753.2090195647525
 20
-621.6820883067376
 10
754.954651048567
 20
-621.6820883067376
 10
757.4773889067401
 20
-621.6820883067376
 10
760.03972988026
 20
-622.4862395655855
 10
762.643779917049
 20
-624.0927014612935
 10
762.643779917049
 20
-624.0927014612935
 10
760.066755650847
 20
-631.0336415444654
 10
760.066755650847
 20
-631.0336415444654
 10
758.2381758571573
 20
-629.9530365304436
 10
756.4093389651989
 20
-629.4127340234318
 10
754.580524221703
 20
-629.4127340234318
 10
752.9470611112683
 20
-629.4127340234318
 10
751.477880637789
 20
-629.9053690386863
 10
750.1748980133489
 20
-630.8882982548675
 10
748.8740434023439
 20
-631.8712274710488
 10
747.9449746263508
 20
-633.2365606277963
 10
747.3901796361806
 20
-634.9821697120842
 10
746.558977589626
 20
-637.6421859931543
 10
746.1433765663478
 20
-640.5516054007367
 10
746.1433765663478
 20
-643.7104279348332
 10
746.1433765663478
 20
-643.7104279348332
 10
746.1433765663478
 20
-666.8193725769488
 10
746.1433765663478
 20
-666.8193725769488
 10
746.1433765663478
 20
-666.8193725769488
 10
738.6619197433229
 20
-666.8193725769488
 10
738.6619197433229
 20
-666.8193725769488
 97
        0
 97
        0
 75
     2
 76
     1
 98
        0
  0
SPLINE
  5
51
330
49
100
AcDbEntity
  8
logo
370
     0
100
AcDbSpline
210
0.0
220
0.0
230
1.0
 70
    11
 71
     3
 72
    32
 73
    28
 74
     0
 42
0.0000000001
 43
0.0000000001
 12
1.0
 22
0.0
 32
0.0
 13
1.0
 23
0.0
 33
0.0
 40
0.0
 40
0.0
 40
0.0
 40
0.0
 40
1.0
 40
1.0
 40
1.0
 40
2.0
 40
2.0
 40
2.0
 40
3.0
 40
3.0
 40
3.0
 40
4.0
 40
4.0
 40
4.0
 40
5.0
 40
5.0
 40
5.0
 40
6.0
 40
6.0
 40
6.0
 40
7.0
 40
7.0
 40
7.0
 40
8.0
 40
8.0
 40
8.0
 40
9.0
 40
9.0
 40
9.0
 40
9.0
 10
777.0742646024028
 20
-644.7495123940462
 30
0.0
 10
777.0742646024028
 20
-636.5760514677022
 30
0.0
 10
779.3478341531954
 20
-630.5203648028692
 30
0.0
 10
783.8905044265721
 20
-626.586519925122
 30
0.0
 10
787.6873059920199
 20
-623.3176791176411
 30
0.0
 10
792.3153096040223
 20
-621.6820883067376
 30
0.0
 10
797.7726000504899
 20
-621.6820883067376
 30
0.0
 10
803.8406303519532
 20
-621.6820883067376
 30
0.0
 10
808.8012424633835
 20
-623.6709292797677
 30
0.0
 10
812.6520955700053
 20
-627.6464832128022
 30
0.0
 10
816.5048638887147
 20
-631.6217997120766
 30
0.0
 10
818.429226435308
 20
-637.116329481054
 30
0.0
 10
818.429226435308
 20
-644.1260045620129
 30
0.0
 10
818.429226435308
 20
-649.8054828406239
 30
0.0
 10
817.5771698571189
 20
-654.2734589876109
 30
0.0
 10
815.8730567007406
 20
-657.529957319548
 30
0.0
 10
814.1691563457061
 20
-660.7864556514833
 30
0.0
 10
811.6898078960367
 20
-663.3134711184994
 30
0.0
 10
808.4333089409847
 20
-665.1152597466462
 30
0.0
 10
805.1789379993643
 20
-666.9170246339636
 30
0.0
 10
801.6253683691994
 20
-667.8167722816997
 30
0.0
 10
797.7726000504899
 20
-667.8167722816997
 30
0.0
 10
791.5943386532454
 20
-667.8167722816997
 30
0.0
 10
786.6005295322757
 20
-665.8362305594674
 30
0.0
 10
782.7892574754915
 20
-661.8732319032788
 30
0.0
 10
778.9799233032372
 20
-657.9102332470884
 30
0.0
 10
777.0742646024028
 20
-652.2037535196359
 30
0.0
 10
777.0742646024028
 20
-644.7495123940462
 30
0.0
  0
SPLINE
  5
52
330
49
100
AcDbEntity
  8
logo
370
     0
100
AcDbSpline
210
0.0
220
0.0
230
1.0
 70
    11
 71
     3
 72
    29
 73
    25
 74
     0
 42
0.0000000001
 43
0.0000000001
 12
1.0
 22
0.0
 32
0.0
 13
1.0
 23
0.0
 33
0.0
 40
0.0
 40
0.0
 40
0.0
 40
0.0
 40
1.0
 40
1.0
 40
1.0
 40
2.0
 40
2.0
 40
2.0
 40
3.0
 40
3.0
 40
3.0
 40
4.0
 40
4.0
 40
4.0
 40
5.0
 40
5.0
 40
5.0
 40
6.0
 40
6.0
 40
6.0
 40
7.0
 40
7.0
 40
7.0
 40
8.0
 40
8.0
 40
8.0
 40
8.0
 10
784.7634155363958
 20
-644.7495123940462
 30
0.0
 10
784.7634155363958
 20
-650.4019648914909
 30
0.0
 10
785.9978761283219
 20
-654.6352212018355
 30
0.0
 10
788.4625412853111
 20
-657.4469648115773
 30
0.0
 10
790.9293344557336
 20
-660.2584717109803
 30
0.0
 10
794.0319780396494
 20
-661.665537832052
 30
0.0
 10
797.7726000504899
 20
-661.665537832052
 30
0.0
 10
801.4861962907435
 20
-661.665537832052
 30
0.0
 10
804.5762845954105
 20
-660.2523243822452
 30
0.0
 10
807.0409497523997
 20
-657.4260863033487
 30
0.0
 10
809.5077429228222
 20
-654.599896185624
 30
0.0
 10
810.7400755013168
 20
-650.2919466181065
 30
0.0
 10
810.7400755013168
 20
-644.5001335683555
 30
0.0
 10
810.7400755013168
 20
-639.0407161530893
 30
0.0
 10
809.501571683868
 20
-634.905323892377
 30
0.0
 10
807.020308022109
 20
-632.0936048321455
 30
0.0
 10
804.5409595724377
 20
-629.2818612224037
 30
0.0
 10
801.4591705201565
 20
-627.8750318116727
 30
0.0
 10
797.7726000504899
 20
-627.8750318116727
 30
0.0
 10
794.0319780396494
 20
-627.8750318116727
 30
0.0
 10
790.9293344557336
 20
-629.2735619716077
 30
0.0
 10
788.4625412853111
 20
-632.0727503045018
 30
0.0
 10
785.9978761283219
 20
-634.8721514386998
 30
0.0
 10
784.7634155363958
 20
-639.0968956969446
 30
0.0
 10
784.7634155363958
 20
-644.7495123940462
 30
0.0
  0
HATCH
  5
53
330
49
100
AcDbEntity
  8
logo
 62
    12
420
 13898006
100
AcDbHatch
 10
0.0
 20
0.0
 30
0.0
210
0.0
220
0.0
230
1.0
  2
SOLID
 70
     1
 71
     0
 91
        2
 92
        1
 93
        1
 72
     4
 94
        3
 73
     0
 74
     1
 95
       32
 96
       28
 40
0.0
 40
0.0
 40
0.0
 40
0.0
 40
1.0
 40
1.0
 40
1.0
 40
2.0
 40
2.0
 40
2.0
 40
3.0
 40
3.0
 40
3.0
 40
4.0
 40
4.0
 40
4.0
 40
5.0
 40
5.0
 40
5.0
 40
6.0
 40
6.0
 40
6.0
 40
7.0
 40
7.0
 40
7.0
 40
8.0
 40
8.0
 40
8.0
 40
9.0
 40
9.0
 40
9.0
 40
9.0
 10
777.0742646024028
 20
-644.7495123940462
 10
777.0742646024028
 20
-636.5760514677022
 10
779.3478341531954
 20
-630.5203648028692
 10
783.8905044265721
 20
-626.586519925122
 10
787.6873059920199
 20
-623.3176791176411
 10
792.3153096040223
 20
-621.6820883067376
 10
797.7726000504899
 20
-621.6820883067376
 10
803.8406303519532
 20
-621.6820883067376
 10
808.8012424633835
 20
-623.6709292797677
 10
812.6520955700053
 20
-627.6464832128022
 10
816.5048638887147
 20
-631.6217997120766
 10
818.429226435308
 20
-637.116329481054
 10
818.429226435308
 20
-644.1260045620129
 10
818.429226435308
 20
-649.8054828406239
 10
817.5771698571189
 20
-654.2734589876109
 10
815.8730567007406
 20
-657.529957319548
 10
814.1691563457061
 20
-660.7864556514833
 10
811.6898078960367
 20
-663.3134711184994
 10
808.4333089409847
 20
-665.1152597466462
 10
805.1789379993643
 20
-666.9170246339636
 10
801.6253683691994
 20
-667.8167722816997
 10
797.7726000504899
 20
-667.8167722816997
 10
791.5943386532454
 20
-667.8167722816997
 10
786.6005295322757
 20
-665.8362305594674
 10
782.7892574754915
 20
-661.8732319032788
 10
778.9799233032372
 20
-657.9102332470884
 10
777.0742646024028
 20
-652.2037535196359
 10
777.0742646024028
 20
-644.7495123940462
 97
        0
 97
        0
 92
        1
 93
        1
 72
     4
 94
        3
 73
     0
 74
     1
 95
       29
 96
       25
 40
0.0
 40
0.0
 40
0.0
 40
0.0
 40
1.0
 40
1.0
 40
1.0
 40
2.0
 40
2.0
 40
2.0
 40
3.0
 40
3.0
 40
3.0
 40
4.0
 40
4.0
 40
4.0
 40
5.0
 40
5.0
 40
5.0
 40
6.0
 40
6.0
 40
6.0
 40
7.0
 40
7.0
 40
7.0
 40
8.0
 40
8.0
 40
8.0
 40
8.0
 10
784.7634155363958
 20
-644.7495123940462
 10
784.7634155363958
 20
-650.4019648914909
 10
785.9978761283219
 20
-654.6352212018355
 10
788.4625412853111
 20
-657.4469648115773
 10
790.9293344557336
 20
-660.2584717109803
 10
794.0319780396494
 20
-661.665537832052
 10
797.7726000504899
 20
-661.665537832052
 10
801.4861962907435
 20
-661.665537832052
 10
804.5762845954105
 20
-660.2523243822452
 10
807.0409497523997
 20
-657.4260863033487
 10
809.5077429228222
 20
-654.599896185624
 10
810.7400755013168
 20
-650.2919466181065
 10
810.7400755013168
 20
-644.5001335683555
 10
810.7400755013168
 20
-639.0407161530893
 10
809.501571683868
 20
-634.905323892377
 10
807.020308022109
 20
-632.0936048321455
 10
804.5409595724377
 20
-629.2818612224037
 10
801.4591705201565
 20
-627.8750318116727
 10
797.7726000504899
 20
-627.8750318116727
 10
794.0319780396494
 20
-627.8750318116727
 10
790.9293344557336
 20
-629.2735619716077
 10
788.4625412853111
 20
-632.0727503045018
 10
785.9978761283219
 20
-634.8721514386998
 10
784.7634155363958
 20
-639.0968956969446
 10
784.7634155363958
 20
-644.7495123940462
 97
        0
 97
        0
 75
     2
 76
     1
 98
        0
  0
SPLINE
  5
54
330
49
100
AcDbEntity
  8
logo
370
     0
100
AcDbSpline
210
0.0
220
0.0
230
1.0
 70
    11
 71
     3
 72
    62
 73
    58
 74
     0
 42
0.0000000001
 43
0.0000000001
 12
1.0
 22
0.0
 32
0.0
 13
1.0
 23
0.0
 33
0.0
 40
0.0
 40
0.0
 40
0.0
 40
0.0
 40
1.0
 40
1.0
 40
1.0
 40
2.0
 40
2.0
 40
2.0
 40
3.0
 40
3.0
 40
3.0
 40
4.0
 40
4.0
 40
4.0
 40
5.0
 40
5.0
 40
5.0
 40
6.0
 40
6.0
 40
6.0
 40
7.0
 40
7.0
 40
7.0
 40
8.0
 40
8.0
 40
8.0
 40
9.0
 40
9.0
 40
9.0
 40
10.0
 40
10.0
 40
10.0
 40
11.0
 40
11.0
 40
11.0
 40
12.0
 40
12.0
 40
12.0
 40
13.0
 40
13.0
 40
13.0
 40
14.0
 40
14.0
 40
14.0
 40
15.0
 40
15.0
 40
15.0
 40
16.0
 40
16.0
 40
16.0
 40
17.0
 40
17.0
 40
17.0
 40
18.0
 40
18.0
 40
18.0
 40
19.0
 40
19.0
 40
19.0
 40
19.0
 10
868.894877118697
 20
-666.8193725769488
 30
0.0
 10
868.894877118697
 20
-666.8193725769488
 30
0.0
 10
868.894877118697
 20
-660.3355296915179
 30
0.0
 10
868.894877118697
 20
-660.3355296915179
 30
0.0
 10
865.4596000914662
 20
-665.3229538178712
 30
0.0
 10
860.7901002175404
 20
-667.8167722816997
 30
0.0
 10
854.8880549637761
 20
-667.8167722816997
 30
0.0
 10
852.284217728331
 20
-667.8167722816997
 30
0.0
 10
849.8527495808812
 20
-667.3179660286733
 30
0.0
 10
847.5938633227688
 20
-666.3205663239241
 30
0.0
 10
845.3368922767477
 20
-665.3229538178712
 30
0.0
 10
843.6600176922984
 20
-664.069979748836
 30
0.0
 10
842.5647291788282
 20
-662.5590905011886
 30
0.0
 10
841.4715686787877
 20
-661.0482012535413
 30
0.0
 10
840.7027174257928
 20
-659.1987211978303
 30
0.0
 10
840.2579626184961
 20
-657.0105093401799
 30
0.0
 10
839.9545079030868
 20
-655.5411163465178
 30
0.0
 10
839.8008653332927
 20
-653.2137085012328
 30
0.0
 10
839.8008653332927
 20
-650.0278602017206
 30
0.0
 10
839.8008653332927
 20
-650.0278602017206
 30
0.0
 10
839.8008653332927
 20
-622.6797008127887
 30
0.0
 10
839.8008653332927
 20
-622.6797008127887
 30
0.0
 10
839.8008653332927
 20
-622.6797008127887
 30
0.0
 10
847.2821093549755
 20
-622.6797008127887
 30
0.0
 10
847.2821093549755
 20
-622.6797008127887
 30
0.0
 10
847.2821093549755
 20
-622.6797008127887
 30
0.0
 10
847.2821093549755
 20
-647.1601498494256
 30
0.0
 10
847.2821093549755
 20
-647.1601498494256
 30
0.0
 10
847.2821093549755
 20
-651.0669689617589
 30
0.0
 10
847.4359891278964
 20
-653.6999354026957
 30
0.0
 10
847.7392066401771
 20
-655.0569933833631
 30
0.0
 10
848.2109872180608
 20
-657.0249798287496
 30
0.0
 10
849.2086243615704
 20
-658.5690660795844
 30
0.0
 10
850.7318319296573
 20
-659.6911673475915
 30
0.0
 10
852.257191957744
 20
-660.8134814168989
 30
0.0
 10
854.1400582424121
 20
-661.3746384515543
 30
0.0
 10
856.3842858356838
 20
-661.3746384515543
 30
0.0
 10
858.6286769746166
 20
-661.3746384515543
 30
0.0
 10
860.7360734141384
 20
-660.7989870329493
 30
0.0
 10
862.7019074848849
 20
-659.6496710936062
 30
0.0
 10
864.6698943068368
 20
-658.5005440601835
 30
0.0
 10
866.06225349542
 20
-656.9334752686809
 30
0.0
 10
866.8789850506382
 20
-654.9531463477506
 30
0.0
 10
867.6978446192879
 20
-652.9726046255164
 30
0.0
 10
868.1051463901804
 20
-650.0965950224236
 30
0.0
 10
868.1051463901804
 20
-646.3287351606141
 30
0.0
 10
868.1051463901804
 20
-646.3287351606141
 30
0.0
 10
868.1051463901804
 20
-622.6797008127887
 30
0.0
 10
868.1051463901804
 20
-622.6797008127887
 30
0.0
 10
868.1051463901804
 20
-622.6797008127887
 30
0.0
 10
875.5863904118614
 20
-622.6797008127887
 30
0.0
 10
875.5863904118614
 20
-622.6797008127887
 30
0.0
 10
875.5863904118614
 20
-622.6797008127887
 30
0.0
 10
875.5863904118614
 20
-666.8193725769488
 30
0.0
 10
875.5863904118614
 20
-666.8193725769488
 30
0.0
 10
875.5863904118614
 20
-666.8193725769488
 30
0.0
 10
868.894877118697
 20
-666.8193725769488
 30
0.0
 10
868.894877118697
 20
-666.8193725769488
 30
0.0
  0
HATCH
  5
55
330
49
100
AcDbEntity
  8
logo
 62
    12
420
 13898006
100
AcDbHatch
 10
0.0
 20
0.0
 30
0.0
210
0.0
220
0.0
230
1.0
  2
SOLID
 70
     1
 71
     0
 91
        1
 92
        1
 93
        1
 72
     4
 94
        3
 73
     0
 74
     1
 95
       62
 96
       58
 40
0.0
 40
0.0
 40
0.0
 40
0.0
 40
1.0
 40
1.0
 40
1.0
 40
2.0
 40
2.0
 40
2.0
 40
3.0
 40
3.0
 40
3.0
 40
4.0
 40
4.0
 40
4.0
 40
5.0
 40
5.0
 40
5.0
 40
6.0
 40
6.0
 40
6.0
 40
7.0
 40
7.0
 40
7.0
 40
8.0
 40
8.0
 40
8.0
 40
9.0
 40
9.0
 40
9.0
 40
10.0
 40
10.0
 40
10.0
 40
11.0
 40
11.0
 40
11.0
 40
12.0
 40
12.0
 40
12.0
 40
13.0
 40
13.0
 40
13.0
 40
14.0
 40
14.0
 40
14.0
 40
15.0
 40
15.0
 40
15.0
 40
16.0
 40
16.0
 40
16.0
 40
17.0
 40
17.0
 40
17.0
 40
18.0
 40
18.0
 40
18.0
 40
19.0
 40
19.0
 40
19.0
 40
19.0
 10
868.894877118697
 20
-666.8193725769488
 10
868.894877118697
 20
-666.8193725769488
 10
868.894877118697
 20
-660.3355296915179
 10
868.894877118697
 20
-660.3355296915179
 10
865.4596000914662
 20
-665.3229538178712
 10
860.7901002175404
 20
-667.8167722816997
 10
854.8880549637761
 20
-667.8167722816997
 10
852.284217728331
 20
-667.8167722816997
 10
849.8527495808812
 20
-667.3179660286733
 10
847.5938633227688
 20
-666.3205663239241
 10
845.3368922767477
 20
-665.3229538178712
 10
843.6600176922984
 20
-664.069979748836
 10
842.5647291788282
 20
-662.5590905011886
 10
841.4715686787877
 20
-661.0482012535413
 10
840.7027174257928
 20
-659.1987211978303
 10
840.2579626184961
 20
-657.0105093401799
 10
839.9545079030868
 20
-655.5411163465178
 10
839.8008653332927
 20
-653.2137085012328
 10
839.8008653332927
 20
-650.0278602017206
 10
839.8008653332927
 20
-650.0278602017206
 10
839.8008653332927
 20
-622.6797008127887
 10
839.8008653332927
 20
-622.6797008127887
 10
839.8008653332927
 20
-622.6797008127887
 10
847.2821093549755
 20
-622.6797008127887
 10
847.2821093549755
 20
-622.6797008127887
 10
847.2821093549755
 20
-622.6797008127887
 10
847.2821093549755
 20
-647.1601498494256
 10
847.2821093549755
 20
-647.1601498494256
 10
847.2821093549755
 20
-651.0669689617589
 10
847.4359891278964
 20
-653.6999354026957
 10
847.7392066401771
 20
-655.0569933833631
 10
848.2109872180608
 20
-657.0249798287496
 10
849.2086243615704
 20
-658.5690660795844
 10
850.7318319296573
 20
-659.6911673475915
 10
852.257191957744
 20
-660.8134814168989
 10
854.1400582424121
 20
-661.3746384515543
 10
856.3842858356838
 20
-661.3746384515543
 10
858.6286769746166
 20
-661.3746384515543
 10
860.7360734141384
 20
-660.7989870329493
 10
862.7019074848849
 20
-659.6496710936062
 10
864.6698943068368
 20
-658.5005440601835
 10
866.06225349542
 20
-656.9334752686809
 10
866.8789850506382
 20
-654.9531463477506
 10
867.6978446192879
 20
-652.9726046255164
 10
868.1051463901804
 20
-650.0965950224236
 10
868.1051463901804
 20
-646.3287351606141
 10
868.1051463901804
 20
-646.3287351606141
 10
868.1051463901804
 20
-622.6797008127887
 10
868.1051463901804
 20
-622.6797008127887
 10
868.1051463901804
 20
-622.6797008127887
 10
875.5863904118614
 20
-622.6797008127887
 10
875.5863904118614
 20
-622.6797008127887
 10
875.5863904118614
 20
-622.6797008127887
 10
875.5863904118614
 20
-666.8193725769488
 10
875.5863904118614
 20
-666.8193725769488
 10
875.5863904118614
 20
-666.8193725769488
 10
868.894877118697
 20
-666.8193725769488
 10
868.894877118697
 20
-666.8193725769488
 97
        0
 97
        0
 75
     2
 76
     1
 98
        0
  0
SPLINE
  5
56
330
49
100
AcDbEntity
  8
logo
370
     0
100
AcDbSpline
210
0.0
220
0.0
230
1.0
 70
    11
 71
     3
 72
    50
 73
    46
 74
     0
 42
0.0000000001
 43
0.0000000001
 12
1.0
 22
0.0
 32
0.0
 13
1.0
 23
0.0
 33
0.0
 40
0.0
 40
0.0
 40
0.0
 40
0.0
 40
1.0
 40
1.0
 40
1.0
 40
2.0
 40
2.0
 40
2.0
 40
3.0
 40
3.0
 40
3.0
 40
4.0
 40
4.0
 40
4.0
 40
5.0
 40
5.0
 40
5.0
 40
6.0
 40
6.0
 40
6.0
 40
7.0
 40
7.0
 40
7.0
 40
8.0
 40
8.0
 40
8.0
 40
9.0
 40
9.0
 40
9.0
 40
10.0
 40
10.0
 40
10.0
 40
11.0
 40
11.0
 40
11.0
 40
12.0
 40
12.0
 40
12.0
 40
13.0
 40
13.0
 40
13.0
 40
14.0
 40
14.0
 40
14.0
 40
15.0
 40
15.0
 40
15.0
 40
15.0
 10
900.0751433851001
 20
-683.735373714133
 30
0.0
 10
900.0751433851001
 20
-683.735373714133
 30
0.0
 10
900.0751433851001
 20
-622.6797008127887
 30
0.0
 10
900.0751433851001
 20
-622.6797008127887
 30
0.0
 10
900.0751433851001
 20
-622.6797008127887
 30
0.0
 10
906.8913832092694
 20
-622.6797008127887
 30
0.0
 10
906.8913832092694
 20
-622.6797008127887
 30
0.0
 10
906.8913832092694
 20
-622.6797008127887
 30
0.0
 10
906.8913832092694
 20
-628.4153343186827
 30
0.0
 10
906.8913832092694
 20
-628.4153343186827
 30
0.0
 10
908.4999485625485
 20
-626.1709189813664
 30
0.0
 10
910.3140800133642
 20
-624.4876606787075
 30
0.0
 10
912.3361444177881
 20
-623.3653466093983
 30
0.0
 10
914.3602847530456
 20
-622.2432453413912
 30
0.0
 10
916.812394630786
 20
-621.6820883067376
 30
0.0
 10
919.6926870381976
 20
-621.6820883067376
 30
0.0
 10
923.4624366059124
 20
-621.6820883067376
 30
0.0
 10
926.7874839998494
 20
-622.6526750473731
 30
0.0
 10
929.667723773744
 20
-624.59150771432
 30
0.0
 10
932.5501445193968
 20
-626.530340381265
 30
0.0
 10
934.7260117017049
 20
-629.267390733834
 30
0.0
 10
936.1933036070841
 20
-632.800105156397
 30
0.0
 10
937.6624574365778
 20
-636.333032380262
 30
0.0
 10
938.3959836666018
 20
-640.2045264763838
 30
0.0
 10
938.3959836666018
 20
-644.4169282590847
 30
0.0
 10
938.3959836666018
 20
-648.9327846991309
 30
0.0
 10
937.5856361516817
 20
-652.999630390932
 30
0.0
 10
935.964515519152
 20
-656.6155501227677
 30
0.0
 10
934.3436076879661
 20
-660.2316826559036
 30
0.0
 10
931.9891736267564
 20
-663.001717210358
 30
0.0
 10
928.8988725207473
 20
-664.928207401761
 30
0.0
 10
925.8107258098698
 20
-666.8546975931622
 30
0.0
 10
922.5605845134141
 20
-667.8167722816997
 30
0.0
 10
919.1523582006575
 20
-667.8167722816997
 30
0.0
 10
916.6587520609919
 20
-667.8167722816997
 30
0.0
 10
914.4226355466053
 20
-667.2909402632577
 30
0.0
 10
912.4399654319714
 20
-666.2373610146515
 30
0.0
 10
910.4596361321146
 20
-665.1837817660453
 30
0.0
 10
908.8323442606343
 20
-663.8537736255112
 30
0.0
 10
907.5563874067811
 20
-662.2473365930473
 30
0.0
 10
907.5563874067811
 20
-662.2473365930473
 30
0.0
 10
907.5563874067811
 20
-683.735373714133
 30
0.0
 10
907.5563874067811
 20
-683.735373714133
 30
0.0
 10
907.5563874067811
 20
-683.735373714133
 30
0.0
 10
900.0751433851001
 20
-683.735373714133
 30
0.0
 10
900.0751433851001
 20
-683.735373714133
 30
0.0
  0
SPLINE
  5
57
330
49
100
AcDbEntity
  8
logo
370
     0
100
AcDbSpline
210
0.0
220
0.0
230
1.0
 70
    11
 71
     3
 72
    29
 73
    25
 74
     0
 42
0.0000000001
 43
0.0000000001
 12
1.0
 22
0.0
 32
0.0
 13
1.0
 23
0.0
 33
0.0
 40
0.0
 40
0.0
 40
0.0
 40
0.0
 40
1.0
 40
1.0
 40
1.0
 40
2.0
 40
2.0
 40
2.0
 40
3.0
 40
3.0
 40
3.0
 40
4.0
 40
4.0
 40
4.0
 40
5.0
 40
5.0
 40
5.0
 40
6.0
 40
6.0
 40
6.0
 40
7.0
 40
7.0
 40
7.0
 40
8.0
 40
8.0
 40
8.0
 40
8.0
 10
906.8498869473442
 20
-644.99872702008
 30
0.0
 10
906.8498869473442
 20
-650.6783937834189
 30
0.0
 10
908.0011422140778
 20
-654.8761122762498
 30
0.0
 10
910.2996355118812
 20
-657.5923081011751
 30
0.0
 10
912.6000180900337
 20
-660.3085039261023
 30
0.0
 10
915.38471041923
 20
-661.665537832052
 30
0.0
 10
918.6537646535307
 20
-661.665537832052
 30
0.0
 10
921.9787856410949
 20
-661.665537832052
 30
0.0
 10
924.825854811821
 20
-660.2584717109803
 30
0.0
 10
927.194759364369
 20
-657.4469648115773
 30
0.0
 10
929.5638767182609
 20
-654.6352212018355
 30
0.0
 10
930.7485417958778
 20
-650.2772633282348
 30
0.0
 10
930.7485417958778
 20
-644.3754320050994
 30
0.0
 10
930.7485417958778
 20
-638.7498167725917
 30
0.0
 10
929.5930305022794
 20
-634.5395430029148
 30
0.0
 10
927.2779646895615
 20
-631.7403546700189
 30
0.0
 10
924.9650268902769
 20
-628.9409535358209
 30
0.0
 10
922.2011630447432
 20
-627.542398640373
 30
0.0
 10
918.9861865609091
 20
-627.542398640373
 30
0.0
 10
915.8003114425082
 20
-627.542398640373
 30
0.0
 10
912.9804808437111
 20
-629.0324580958913
 30
0.0
 10
910.5281581646268
 20
-632.0103995228746
 30
0.0
 10
908.0760482868864
 20
-634.9883164024413
 30
0.0
 10
906.8498869473442
 20
-639.3192730580431
 30
0.0
 10
906.8498869473442
 20
-644.99872702008
 30
0.0
  0
HATCH
  5
58
330
49
100
AcDbEntity
  8
logo
 62
    12
420
 13898006
100
AcDbHatch
 10
0.0
 20
0.0
 30
0.0
210
0.0
220
0.0
230
1.0
  2
SOLID
 70
     1
 71
     0
 91
        2
 92
        1
 93
        1
 72
     4
 94
        3
 73
     0
 74
     1
 95
       50
 96
       46
 40
0.0
 40
0.0
 40
0.0
 40
0.0
 40
1.0
 40
1.0
 40
1.0
 40
2.0
 40
2.0
 40
2.0
 40
3.0
 40
3.0
 40
3.0
 40
4.0
 40
4.0
 40
4.0
 40
5.0
 40
5.0
 40
5.0
 40
6.0
 40
6.0
 40
6.0
 40
7.0
 40
7.0
 40
7.0
 40
8.0
 40
8.0
 40
8.0
 40
9.0
 40
9.0
 40
9.0
 40
10.0
 40
10.0
 40
10.0
 40
11.0
 40
11.0
 40
11.0
 40
12.0
 40
12.0
 40
12.0
 40
13.0
 40
13.0
 40
13.0
 40
14.0
 40
14.0
 40
14.0
 40
15.0
 40
15.0
 40
15.0
 40
15.0
 10
900.0751433851001
 20
-683.735373714133
 10
900.0751433851001
 20
-683.735373714133
 10
900.0751433851001
 20
-622.6797008127887
 10
900.0751433851001
 20
-622.6797008127887
 10
900.0751433851001
 20
-622.6797008127887
 10
906.8913832092694
 20
-622.6797008127887
 10
906.8913832092694
 20
-622.6797008127887
 10
906.8913832092694
 20
-622.6797008127887
 10
906.8913832092694
 20
-628.4153343186827
 10
906.8913832092694
 20
-628.4153343186827
 10
908.4999485625485
 20
-626.1709189813664
 10
910.3140800133642
 20
-624.4876606787075
 10
912.3361444177881
 20
-623.3653466093983
 10
914.3602847530456
 20
-622.2432453413912
 10
916.812394630786
 20
-621.6820883067376
 10
919.6926870381976
 20
-621.6820883067376
 10
923.4624366059124
 20
-621.6820883067376
 10
926.7874839998494
 20
-622.6526750473731
 10
929.667723773744
 20
-624.59150771432
 10
932.5501445193968
 20
-626.530340381265
 10
934.7260117017049
 20
-629.267390733834
 10
936.1933036070841
 20
-632.800105156397
 10
937.6624574365778
 20
-636.333032380262
 10
938.3959836666018
 20
-640.2045264763838
 10
938.3959836666018
 20
-644.4169282590847
 10
938.3959836666018
 20
-648.9327846991309
 10
937.5856361516817
 20
-652.999630390932
 10
935.964515519152
 20
-656.6155501227677
 10
934.3436076879661
 20
-660.2316826559036
 10
931.9891736267564
 20
-663.001717210358
 10
928.8988725207473
 20
-664.928207401761
 10
925.8107258098698
 20
-666.8546975931622
 10
922.5605845134141
 20
-667.8167722816997
 10
919.1523582006575
 20
-667.8167722816997
 10
916.6587520609919
 20
-667.8167722816997
 10
914.4226355466053
 20
-667.2909402632577
 10
912.4399654319714
 20
-666.2373610146515
 10
910.4596361321146
 20
-665.1837817660453
 10
908.8323442606343
 20
-663.8537736255112
 10
907.5563874067811
 20
-662.2473365930473
 10
907.5563874067811
 20
-662.2473365930473
 10
907.5563874067811
 20
-683.735373714133
 10
907.5563874067811
 20
-683.735373714133
 10
907.5563874067811
 20
-683.735373714133
 10
900.0751433851001
 20
-683.735373714133
 10
900.0751433851001
 20
-683.735373714133
 97
        0
 97
        0
 92
        1
 93
        1
 72
     4
 94
        3
 73
     0
 74
     1
 95
       29
 96
       25
 40
0.0
 40
0.0
 40
0.0
 40
0.0
 40
1.0
 40
1.0
 40
1.0
 40
2.0
 40
2.0
 40
2.0
 40
3.0
 40
3.0
 40
3.0
 40
4.0
 40
4.0
 40
4.0
 40
5.0
 40
5.0
 40
5.0
 40
6.0
 40
6.0
 40
6.0
 40
7.0
 40
7.0
 40
7.0
 40
8.0
 40
8.0
 40
8.0
 40
8.0
 10
906.8498869473442
 20
-644.99872702008
 10
906.8498869473442
 20
-650.6783937834189
 10
908.0011422140778
 20
-654.8761122762498
 10
910.2996355118812
 20
-657.5923081011751
 10
912.6000180900337
 20
-660.3085039261023
 10
915.38471041923
 20
-661.665537832052
 10
918.6537646535307
 20
-661.665537832052
 10
921.9787856410949
 20
-661.665537832052
 10
924.825854811821
 20
-660.2584717109803
 10
927.194759364369
 20
-657.4469648115773
 10
929.5638767182609
 20
-654.6352212018355
 10
930.7485417958778
 20
-650.2772633282348
 10
930.7485417958778
 20
-644.3754320050994
 10
930.7485417958778
 20
-638.7498167725917
 10
929.5930305022794
 20
-634.5395430029148
 10
927.2779646895615
 20
-631.7403546700189
 10
924.9650268902769
 20
-628.9409535358209
 10
922.2011630447432
 20
-627.542398640373
 10
918.9861865609091
 20
-627.542398640373
 10
915.8003114425082
 20
-627.542398640373
 10
912.9804808437111
 20
-629.0324580958913
 10
910.5281581646268
 20
-632.0103995228746
 10
908.0760482868864
 20
-634.9883164024413
 10
906.8498869473442
 20
-639.3192730580431
 10
906.8498869473442
 20
-644.99872702008
 97
        0
 97
        0
 75
     2
 76
     1
 98
        0
  0
ENDBLK
  5
4C
330
49
100
AcDbEntity
  8
0
100
AcDbBlockEnd
  0
ENDSEC
  0
SECTION
  2
ENTITIES
  0
SPLINE
  5
41
330
1F
100
AcDbEntity
  8
logo
370
     0
100
AcDbSpline
210
0.0
220
0.0
230
1.0
 70
    11
 71
     3
 72
    20
 73
    16
 74
     0
 42
0.0000000001
 43
0.0000000001
 12
1.0
 22
0.0
 32
0.0
 13
1.0
 23
0.0
 33
0.0
 40
0.0
 40
0.0
 40
0.0
 40
0.0
 40
1.0
 40
1.0
 40
1.0
 40
2.0
 40
2.0
 40
2.0
 40
3.0
 40
3.0
 40
3.0
 40
4.0
 40
4.0
 40
4.0
 40
5.0
 40
5.0
 40
5.0
 40
5.0
 10
98.72636435186996
 20
-584.8368195891762
 30
0.0
 10
161.4446603425813
 20
-645.0300088115455
 30
0.0
 10
285.222689630662
 20
-676.1230455216191
 30
0.0
 10
397.6541512990989
 20
-674.5270357529771
 30
0.0
 10
487.645711326667
 20
-673.2302246156305
 30
0.0
 10
571.066391478782
 20
-661.2312103736786
 30
0.0
 10
632.437873256149
 20
-630.3999192656629
 30
0.0
 10
562.4628331730419
 20
-673.0142312936077
 30
0.0
 10
458.4604327089164
 20
-697.3699787669866
 30
0.0
 10
345.7504258103691
 20
-693.064157212495
 30
0.0
 10
214.6324408643513
 20
-688.0765202848379
 30
0.0
 10
105.3432038296651
 20
-645.2628134364641
 30
0.0
 10
52.56677262601443
 20
-584.8368195891762
 30
0.0
 10
52.56677262601443
 20
-584.8368195891762
 30
0.0
 10
98.72636435186996
 20
-584.8368195891762
 30
0.0
 10
98.72636435186996
 20
-584.8368195891762
 30
0.0
  0
SPLINE
  5
42
330
1F
100
AcDbEntity
  8
logo
370
     0
100
AcDbSpline
210
0.0
220
0.0
230
1.0
 70
    11
 71
     3
 72
    26
 73
    22
 74
     0
 42
0.0000000001
 43
0.0000000001
 12
1.0
 22
0.0
 32
0.0
 13
1.0
 23
0.0
 33
0.0
 40
0.0
 40
0.0
 40
0.0
 40
0.0
 40
1.0
 40
1.0
 40
1.0
 40
2.0
 40
2.0
 40
2.0
 40
3.0
 40
3.0
 40
3.0
 40
4.0
 40
4.0
 40
4.0
 40
5.0
 40
5.0
 40
5.0
 40
6.0
 40
6.0
 40
6.0
 40
7.0
 40
7.0
 40
7.0
 40
7.0
 10
19.41636574289168
 20
-484.7867692746477
 30
0.0
 10
32.96989643529287
 20
-379.0575344830322
 30
0.0
 10
196.951628462898
 20
-300.587054191481
 30
0.0
 10
390.7421508704874
 20
-307.9767922215942
 30
0.0
 10
503.4479134703161
 20
-312.2745273265928
 30
0.0
 10
604.1169936944916
 20
-343.862114263643
 30
0.0
 10
662.5377720469914
 20
-391.3683026331264
 30
0.0
 10
609.6283540763907
 20
-356.1813944658343
 30
0.0
 10
518.9881571604801
 20
-328.7166199631401
 30
0.0
 10
430.3223495010716
 20
-320.2211338662091
 30
0.0
 10
254.1296469710851
 20
-303.3549607329114
 30
0.0
 10
80.80870360279278
 20
-371.9918928366042
 30
0.0
 10
60.25592375425094
 20
-465.9921577643299
 30
0.0
 10
56.47359258459255
 20
-483.2988909094938
 30
0.0
 10
56.49870314372492
 20
-499.6081955332893
 30
0.0
 10
59.78201515096316
 20
-514.8866906478434
 30
0.0
 10
59.78201515096316
 20
-514.8866906478434
 30
0.0
 10
19.84430925488687
 20
-514.8866906478434
 30
0.0
 10
19.84430925488687
 20
-514.8866906478434
 30
0.0
 10
18.28575217788602
 20
-505.0280319062931
 30
0.0
 10
18.11125507205179
 20
-494.9780647938087
 30
0.0
 10
19.41636574289168
 20
-484.7867692746477
 30
0.0
  0
HATCH
  5
43
330
1F
100
AcDbEntity
  8
logo
 62
    12
420
 13898006
100
AcDbHatch
 10
0.0
 20
0.0
 30
0.0
210
0.0
220
0.0
230
1.0
  2
SOLID
 70
     1
 71
     0
 91
        2
 92
        1
 93
        1
 72
     4
 94
        3
 73
     0
 74
     1
 95
       20
 96
       16
 40
0.0
 40
0.0
 40
0.0
 40
0.0
 40
1.0
 40
1.0
 40
1.0
 40
2.0
 40
2.0
 40
2.0
 40
3.0
 40
3.0
 40
3.0
 40
4.0
 40
4.0
 40
4.0
 40
5.0
 40
5.0
 40
5.0
 40
5.0
 10
98.72636435186996
 20
-584.8368195891762
 10
161.4446603425813
 20
-645.0300088115455
 10
285.222689630662
 20
-676.1230455216191
 10
397.6541512990989
 20
-674.5270357529771
 10
487.645711326667
 20
-673.2302246156305
 10
571.066391478782
 20
-661.2312103736786
 10
632.437873256149
 20
-630.3999192656629
 10
562.4628331730419
 20
-673.0142312936077
 10
458.4604327089164
 20
-697.3699787669866
 10
345.7504258103691
 20
-693.064157212495
 10
214.6324408643513
 20
-688.0765202848379
 10
105.3432038296651
 20
-645.2628134364641
 10
52.56677262601443
 20
-584.8368195891762
 10
52.56677262601443
 20
-584.8368195891762
 10
98.72636435186996
 20
-584.8368195891762
 10
98.72636435186996
 20
-584.8368195891762
 97
        0
 97
        0
 92
        1
 93
        1
 72
     4
 94
        3
 73
     0
 74
     1
 95
       26
 96
       22
 40
0.0
 40
0.0
 40
0.0
 40
0.0
 40
1.0
 40
1.0
 40
1.0
 40
2.0
 40
2.0
 40
2.0
 40
3.0
 40
3.0
 40
3.0
 40
4.0
 40
4.0
 40
4.0
 40
5.0
 40
5.0
 40
5.0
 40
6.0
 40
6.0
 40
6.0
 40
7.0
 40
7.0
 40
7.0
 40
7.0
 10
19.41636574289168
 20
-484.7867692746477
 10
32.96989643529287
 20
-379.0575344830322
 10
196.951628462898
 20
-300.587054191481
 10
390.7421508704874
 20
-307.9767922215942
 10
503.4479134703161
 20
-312.2745273265928
 10
604.1169936944916
 20
-343.862114263643
 10
662.5377720469914
 20
-391.3683026331264
 10
609.6283540763907
 20
-356.1813944658343
 10
518.9881571604801
 20
-328.7166199631401
 10
430.3223495010716
 20
-320.2211338662091
 10
254.1296469710851
 20
-303.3549607329114
 10
80.80870360279278
 20
-371.9918928366042
 10
60.25592375425094
 20
-465.9921577643299
 10
56.47359258459255
 20
-483.2988909094938
 10
56.49870314372492
 20
-499.6081955332893
 10
59.78201515096316
 20
-514.8866906478434
 10
59.78201515096316
 20
-514.8866906478434
 10
19.84430925488687
 20
-514.8866906478434
 10
19.84430925488687
 20
-514.8866906478434
 10
18.28575217788602
 20
-505.0280319062931
 10
18.11125507205179
 20
-494.9780647938087
 10
19.41636574289168
 20
-484.7867692746477
 97
        0
 97
        0
 75
     2
 76
     1
 98
        0
  0
SPLINE
  5
44
330
1F
100
AcDbEntity
  8
logo
370
     0
100
AcDbSpline
210
0.0
220
0.0
230
1.0
 70
    11
 71
     3
 72
    41
 73
    37
 74
     0
 42
0.0000000001
 43
0.0000000001
 12
1.0
 22
0.0
 32
0.0
 13
1.0
 23
0.0
 33
0.0
 40
0.0
 40
0.0
 40
0.0
 40
0.0
 40
1.0
 40
1.0
 40
1.0
 40
2.0
 40
2.0
 40
2.0
 40
3.0
 40
3.0
 40
3.0
 40
4.0
 40
4.0
 40
4.0
 40
5.0
 40
5.0
 40
5.0
 40
6.0
 40
6.0
 40
6.0
 40
7.0
 40
7.0
 40
7.0
 40
8.0
 40
8.0
 40
8.0
 40
9.0
 40
9.0
 40
9.0
 40
10.0
 40
10.0
 40
10.0
 40
11.0
 40
11.0
 40
11.0
 40
12.0
 40
12.0
 40
12.0
 40
12.0
 10
963.1756360759991
 20
-377.7981763749231
 30
0.0
 10
966.3844675301734
 20
-377.7981763749231
 30
0.0
 10
969.5265068486315
 20
-378.6210790116347
 30
0.0
 10
972.5854986711402
 20
-380.2751835358549
 30
0.0
 10
975.661116484469
 20
-381.9212016105812
 30
0.0
 10
978.0385607918251
 20
-384.2818064590529
 30
0.0
 10
979.750945499507
 20
-387.3576364851797
 30
0.0
 10
981.4633579082711
 20
-390.4332537100036
 30
0.0
 10
982.3111584595954
 20
-393.6335724980836
 30
0.0
 10
982.3111584595954
 20
-396.9668921002176
 30
0.0
 10
982.3111584595954
 20
-400.2753139499609
 30
0.0
 10
981.4799564130408
 20
-403.4507349856503
 30
0.0
 10
979.7841425090483
 20
-406.4929120862889
 30
0.0
 10
978.1051399111675
 20
-409.543661878417
 30
0.0
 10
975.7443218096614
 20
-411.9127787789876
 30
0.0
 10
972.7019010058721
 20
-413.5919637165453
 30
0.0
 10
969.6594802020845
 20
-415.2709660355713
 30
0.0
 10
966.4840585587935
 20
-416.1190093239184
 30
0.0
 10
963.1756360759991
 20
-416.1190093239184
 30
0.0
 10
959.8506150884368
 20
-416.1190093239184
 30
0.0
 10
956.6754334078978
 20
-415.2709660355713
 30
0.0
 10
953.6329854427004
 20
-413.5919637165453
 30
0.0
 10
950.590564638911
 20
-411.9127787789876
 30
0.0
 10
948.2297465374049
 20
-409.543661878417
 30
0.0
 10
946.5339326334124
 20
-406.4929120862889
 30
0.0
 10
944.8383315307619
 20
-403.4507349856503
 30
0.0
 10
943.990345019045
 20
-400.2753139499609
 30
0.0
 10
943.990345019045
 20
-396.9668921002176
 30
0.0
 10
943.990345019045
 20
-393.6335724980836
 30
0.0
 10
944.8549300355317
 20
-390.4332537100036
 30
0.0
 10
946.567369350354
 20
-387.3576364851797
 30
0.0
 10
948.2963533578277
 20
-384.2818064590529
 30
0.0
 10
950.6735571627614
 20
-381.9212016105812
 30
0.0
 10
953.7494148649239
 20
-380.2751835358549
 30
0.0
 10
956.8084070859913
 20
-378.6210790116347
 30
0.0
 10
959.9504461625365
 20
-377.7981763749231
 30
0.0
 10
963.1756360759991
 20
-377.7981763749231
 30
0.0
  0
SPLINE
  5
45
330
1F
100
AcDbEntity
  8
logo
370
     0
100
AcDbSpline
210
0.0
220
0.0
230
1.0
 70
    11
 71
     3
 72
    41
 73
    37
 74
     0
 42
0.0000000001
 43
0.0000000001
 12
1.0
 22
0.0
 32
0.0
 13
1.0
 23
0.0
 33
0.0
 40
0.0
 40
0.0
 40
0.0
 40
0.0
 40
1.0
 40
1.0
 40
1.0
 40
2.0
 40
2.0
 40
2.0
 40
3.0
 40
3.0
 40
3.0
 40
4.0
 40
4.0
 40
4.0
 40
5.0
 40
5.0
 40
5.0
 40
6.0
 40
6.0
 40
6.0
 40
7.0
 40
7.0
 40
7.0
 40
8.0
 40
8.0
 40
8.0
 40
9.0
 40
9.0
 40
9.0
 40
10.0
 40
10.0
 40
10.0
 40
11.0
 40
11.0
 40
11.0
 40
12.0
 40
12.0
 40
12.0
 40
12.0
 10
963.1756360759991
 20
-380.9735974106115
 30
0.0
 10
960.4824495339853
 20
-380.9735974106115
 30
0.0
 10
957.855602495898
 20
-381.6551999824742
 30
0.0
 10
955.3119880405793
 20
-383.0350036277914
 30
0.0
 10
952.7517750804909
 20
-384.4147763956717
 30
0.0
 10
950.7733609927236
 20
-386.3932209823151
 30
0.0
 10
949.3269502629646
 20
-388.9536462538217
 30
0.0
 10
947.8805395332074
 20
-391.5221579748222
 30
0.0
 10
947.1657398213847
 20
-394.1904735066882
 30
0.0
 10
947.1657398213847
 20
-396.9668921002176
 30
0.0
 10
947.1657398213847
 20
-399.7267121921532
 30
0.0
 10
947.8639410284377
 20
-402.3699171703274
 30
0.0
 10
949.2937532534252
 20
-404.9054143296453
 30
0.0
 10
950.7069669736429
 20
-407.4407594072545
 30
0.0
 10
952.6854081220245
 20
-409.4106610643639
 30
0.0
 10
955.212397011961
 20
-410.8238745141698
 30
0.0
 10
957.7560114672779
 20
-412.2370879639766
 30
0.0
 10
960.4160282573284
 20
-412.943588288229
 30
0.0
 10
963.1756360759991
 20
-412.943588288229
 30
0.0
 10
965.918858191244
 20
-412.943588288229
 30
0.0
 10
968.5788749812946
 20
-412.2370879639766
 30
0.0
 10
971.1225169629797
 20
-410.8238745141698
 30
0.0
 10
973.6495053871604
 20
-409.4106610643639
 30
0.0
 10
975.6279194749295
 20
-407.4407594072545
 30
0.0
 10
977.0411331951473
 20
-404.9054143296453
 30
0.0
 10
978.4375356092514
 20
-402.3699171703274
 30
0.0
 10
979.1357368163044
 20
-399.7267121921532
 30
0.0
 10
979.1357368163044
 20
-396.9668921002176
 30
0.0
 10
979.1357368163044
 20
-394.1904735066882
 30
0.0
 10
978.4209371044817
 20
-391.5221579748222
 30
0.0
 10
976.9911248794942
 20
-388.9536462538217
 30
0.0
 10
975.5615530943633
 20
-386.3932209823151
 30
0.0
 10
973.5665128633118
 20
-384.4147763956717
 30
0.0
 10
971.0226856066492
 20
-383.0350036277914
 30
0.0
 10
968.462500105732
 20
-381.6551999824742
 30
0.0
 10
965.8356528660497
 20
-380.9735974106115
 30
0.0
 10
963.1756360759991
 20
-380.9735974106115
 30
0.0
  0
SPLINE
  5
46
330
1F
100
AcDbEntity
  8
logo
370
     0
100
AcDbSpline
210
0.0
220
0.0
230
1.0
 70
    11
 71
     3
 72
    56
 73
    52
 74
     0
 42
0.0000000001
 43
0.0000000001
 12
1.0
 22
0.0
 32
0.0
 13
1.0
 23
0.0
 33
0.0
 40
0.0
 40
0.0
 40
0.0
 40
0.0
 40
1.0
 40
1.0
 40
1.0
 40
2.0
 40
2.0
 40
2.0
 40
3.0
 40
3.0
 40
3.0
 40
4.0
 40
4.0
 40
4.0
 40
5.0
 40
5.0
 40
5.0
 40
6.0
 40
6.0
 40
6.0
 40
7.0
 40
7.0
 40
7.0
 40
8.0
 40
8.0
 40
8.0
 40
9.0
 40
9.0
 40
9.0
 40
10.0
 40
10.0
 40
10.0
 40
11.0
 40
11.0
 40
11.0
 40
12.0
 40
12.0
 40
12.0
 40
13.0
 40
13.0
 40
13.0
 40
14.0
 40
14.0
 40
14.0
 40
15.0
 40
15.0
 40
15.0
 40
16.0
 40
16.0
 40
16.0
 40
17.0
 40
17.0
 40
17.0
 40
17.0
 10
954.7633861777995
 20
-407.5569186255962
 30
0.0
 10
954.7633861777995
 20
-407.5569186255962
 30
0.0
 10
954.7633861777995
 20
-386.9418227401229
 30
0.0
 10
954.7633861777995
 20
-386.9418227401229
 30
0.0
 10
954.7633861777995
 20
-386.9418227401229
 30
0.0
 10
961.8456276809738
 20
-386.9418227401229
 30
0.0
 10
961.8456276809738
 20
-386.9418227401229
 30
0.0
 10
964.2730526029027
 20
-386.9418227401229
 30
0.0
 10
966.0186620212062
 20
-387.1248318602602
 30
0.0
 10
967.0992672419961
 20
-387.5072358008247
 30
0.0
 10
968.1798724627861
 20
-387.8896397413937
 30
0.0
 10
969.044484320224
 20
-388.5546438116589
 30
0.0
 10
969.692677211624
 20
-389.5022480116304
 30
0.0
 10
970.3410829043678
 20
-390.4498214866207
 30
0.0
 10
970.6570928990259
 20
-391.4638504179411
 30
0.0
 10
970.6570928990259
 20
-392.5278569303691
 30
0.0
 10
970.6570928990259
 20
-394.0325749402455
 30
0.0
 10
970.125089541014
 20
-395.3376853283862
 30
0.0
 10
969.044484320224
 20
-396.4680858471911
 30
0.0
 10
967.963666298092
 20
-397.5818878644013
 30
0.0
 10
966.5506653792163
 20
-398.205395680684
 30
0.0
 10
964.7716461500295
 20
-398.3466957455339
 30
0.0
 10
965.4866586631961
 20
-398.6458943768284
 30
0.0
 10
966.085056040285
 20
-399.0116998158019
 30
0.0
 10
966.5174957797171
 20
-399.4356000103526
 30
0.0
 10
967.3486704162315
 20
-400.2419041454714
 30
0.0
 10
968.3626688165987
 20
-401.605322090496
 30
0.0
 10
969.5596763721223
 20
-403.5254282428232
 30
0.0
 10
969.5596763721223
 20
-403.5254282428232
 30
0.0
 10
972.0866923226695
 20
-407.5569186255962
 30
0.0
 10
972.0866923226695
 20
-407.5569186255962
 30
0.0
 10
972.0866923226695
 20
-407.5569186255962
 30
0.0
 10
968.0136746137432
 20
-407.5569186255962
 30
0.0
 10
968.0136746137432
 20
-407.5569186255962
 30
0.0
 10
968.0136746137432
 20
-407.5569186255962
 30
0.0
 10
966.184859870249
 20
-404.3151338763464
 30
0.0
 10
966.184859870249
 20
-404.3151338763464
 30
0.0
 10
964.7550476452598
 20
-401.7549214061428
 30
0.0
 10
963.5914772367432
 20
-400.1589116375017
 30
0.0
 10
962.7102395384118
 20
-399.5105060688275
 30
0.0
 10
962.0950308552092
 20
-399.0365975681925
 30
0.0
 10
961.2140332943436
 20
-398.7957064937782
 30
0.0
 10
960.0336242435915
 20
-398.7957064937782
 30
0.0
 10
960.0336242435915
 20
-398.7957064937782
 30
0.0
 10
958.0884343624621
 20
-398.7957064937782
 30
0.0
 10
958.0884343624621
 20
-398.7957064937782
 30
0.0
 10
958.0884343624621
 20
-398.7957064937782
 30
0.0
 10
958.0884343624621
 20
-407.5569186255962
 30
0.0
 10
958.0884343624621
 20
-407.5569186255962
 30
0.0
 10
958.0884343624621
 20
-407.5569186255962
 30
0.0
 10
954.7633861777995
 20
-407.5569186255962
 30
0.0
 10
954.7633861777995
 20
-407.5569186255962
 30
0.0
  0
SPLINE
  5
47
330
1F
100
AcDbEntity
  8
logo
370
     0
100
AcDbSpline
210
0.0
220
0.0
230
1.0
 70
    11
 71
     3
 72
    29
 73
    25
 74
     0
 42
0.0000000001
 43
0.0000000001
 12
1.0
 22
0.0
 32
0.0
 13
1.0
 23
0.0
 33
0.0
 40
0.0
 40
0.0
 40
0.0
 40
0.0
 40
1.0
 40
1.0
 40
1.0
 40
2.0
 40
2.0
 40
2.0
 40
3.0
 40
3.0
 40
3.0
 40
4.0
 40
4.0
 40
4.0
 40
5.0
 40
5.0
 40
5.0
 40
6.0
 40
6.0
 40
6.0
 40
7.0
 40
7.0
 40
7.0
 40
8.0
 40
8.0
 40
8.0
 40
8.0
 10
958.0884343624621
 20
-395.9526810925718
 30
0.0
 10
958.0884343624621
 20
-395.9526810925718
 30
0.0
 10
962.1284406660925
 20
-395.9526810925718
 30
0.0
 10
962.1284406660925
 20
-395.9526810925718
 30
0.0
 10
964.0568464382068
 20
-395.9526810925718
 30
0.0
 10
965.3702563284623
 20
-395.670080962871
 30
0.0
 10
966.0684849342069
 20
-395.0882822018748
 30
0.0
 10
966.7834974654415
 20
-394.5145698903743
 30
0.0
 10
967.1324916771064
 20
-393.7582740613407
 30
0.0
 10
967.1324916771064
 20
-392.8023706105751
 30
0.0
 10
967.1324916771064
 20
-392.1954612958862
 30
0.0
 10
966.9662664024945
 20
-391.6468595380784
 30
0.0
 10
966.6170593982952
 20
-391.1646517866448
 30
0.0
 10
966.2846637002112
 20
-390.6826568365168
 30
0.0
 10
965.81905436128
 20
-390.3251506483412
 30
0.0
 10
965.2040584794213
 20
-390.0840467726248
 30
0.0
 10
964.6054483009884
 20
-389.8512421477053
 30
0.0
 10
963.4916460706572
 20
-389.734809092206
 30
0.0
 10
961.8790374918572
 20
-389.734809092206
 30
0.0
 10
961.8790374918572
 20
-389.734809092206
 30
0.0
 10
958.0884343624621
 20
-389.734809092206
 30
0.0
 10
958.0884343624621
 20
-389.734809092206
 30
0.0
 10
958.0884343624621
 20
-389.734809092206
 30
0.0
 10
958.0884343624621
 20
-395.9526810925718
 30
0.0
 10
958.0884343624621
 20
-395.9526810925718
 30
0.0
  0
HATCH
  5
48
330
1F
100
AcDbEntity
  8
logo
 62
    12
420
 13898006
100
AcDbHatch
 10
0.0
 20
0.0
 30
0.0
210
0.0
220
0.0
230
1.0
  2
SOLID
 70
     1
 71
     0
 91
        4
 92
        1
 93
        1
 72
     4
 94
        3
 73
     0
 74
     1
 95
       41
 96
       37
 40
0.0
 40
0.0
 40
0.0
 40
0.0
 40
1.0
 40
1.0
 40
1.0
 40
2.0
 40
2.0
 40
2.0
 40
3.0
 40
3.0
 40
3.0
 40
4.0
 40
4.0
 40
4.0
 40
5.0
 40
5.0
 40
5.0
 40
6.0
 40
6.0
 40
6.0
 40
7.0
 40
7.0
 40
7.0
 40
8.0
 40
8.0
 40
8.0
 40
9.0
 40
9.0
 40
9.0
 40
10.0
 40
10.0
 40
10.0
 40
11.0
 40
11.0
 40
11.0
 40
12.0
 40
12.0
 40
12.0
 40
12.0
 10
963.1756360759991
 20
-377.7981763749231
 10
966.3844675301734
 20
-377.7981763749231
 10
969.5265068486315
 20
-378.6210790116347
 10
972.5854986711402
 20
-380.2751835358549
 10
975.661116484469
 20
-381.9212016105812
 10
978.0385607918251
 20
-384.2818064590529
 10
979.750945499507
 20
-387.3576364851797
 10
981.4633579082711
 20
-390.4332537100036
 10
982.3111584595954
 20
-393.6335724980836
 10
982.3111584595954
 20
-396.9668921002176
 10
982.3111584595954
 20
-400.2753139499609
 10
981.4799564130408
 20
-403.4507349856503
 10
979.7841425090483
 20
-406.4929120862889
 10
978.1051399111675
 20
-409.543661878417
 10
975.7443218096614
 20
-411.9127787789876
 10
972.7019010058721
 20
-413.5919637165453
 10
969.6594802020845
 20
-415.2709660355713
 10
966.4840585587935
 20
-416.1190093239184
 10
963.1756360759991
 20
-416.1190093239184
 10
959.8506150884368
 20
-416.1190093239184
 10
956.6754334078978
 20
-415.2709660355713
 10
953.6329854427004
 20
-413.5919637165453
 10
950.590564638911
 20
-411.9127787789876
 10
948.2297465374049
 20
-409.543661878417
 10
946.5339326334124
 20
-406.4929120862889
 10
944.8383315307619
 20
-403.4507349856503
 10
943.990345019045
 20
-400.2753139499609
 10
943.990345019045
 20
-396.9668921002176
 10
943.990345019045
 20
-393.6335724980836
 10
944.8549300355317
 20
-390.4332537100036
 10
946.567369350354
 20
-387.3576364851797
 10
948.2963533578277
 20
-384.2818064590529
 10
950.6735571627614
 20
-381.9212016105812
 10
953.7494148649239
 20
-380.2751835358549
 10
956.8084070859913
 20
-378.6210790116347
 10
959.9504461625365
 20
-377.7981763749231
 10
963.1756360759991
 20
-377.7981763749231
 97
        0
 97
        0
 92
        1
 93
        1
 72
     4
 94
        3
 73
     0
 74
     1
 95
       41
 96
       37
 40
0.0
 40
0.0
 40
0.0
 40
0.0
 40
1.0
 40
1.0
 40
1.0
 40
2.0
 40
2.0
 40
2.0
 40
3.0
 40
3.0
 40
3.0
 40
4.0
 40
4.0
 40
4.0
 40
5.0
 40
5.0
 40
5.0
 40
6.0
 40
6.0
 40
6.0
 40
7.0
 40
7.0
 40
7.0
 40
8.0
 40
8.0
 40
8.0
 40
9.0
 40
9.0
 40
9.0
 40
10.0
 40
10.0
 40
10.0
 40
11.0
 40
11.0
 40
11.0
 40
12.0
 40
12.0
 40
12.0
 40
12.0
 10
963.1756360759991
 20
-380.9735974106115
 10
960.4824495339853
 20
-380.9735974106115
 10
957.855602495898
 20
-381.6551999824742
 10
955.3119880405793
 20
-383.0350036277914
 10
952.7517750804909
 20
-384.4147763956717
 10
950.7733609927236
 20
-386.3932209823151
 10
949.3269502629646
 20
-388.9536462538217
 10
947.8805395332074
 20
-391.5221579748222
 10
947.1657398213847
 20
-394.1904735066882
 10
947.1657398213847
 20
-396.9668921002176
 10
947.1657398213847
 20
-399.7267121921532
 10
947.8639410284377
 20
-402.3699171703274
 10
949.2937532534252
 20
-404.9054143296453
 10
950.7069669736429
 20
-407.4407594072545
 10
952.6854081220245
 20
-409.4106610643639
 10
955.212397011961
 20
-410.8238745141698
 10
957.7560114672779
 20
-412.2370879639766
 10
960.4160282573284
 20
-412.943588288229
 10
963.1756360759991
 20
-412.943588288229
 10
965.918858191244
 20
-412.943588288229
 10
968.5788749812946
 20
-412.2370879639766
 10
971.1225169629797
 20
-410.8238745141698
 10
973.6495053871604
 20
-409.4106610643639
 10
975.6279194749295
 20
-407.4407594072545
 10
977.0411331951473
 20
-404.9054143296453
 10
978.4375356092514
 20
-402.3699171703274
 10
979.1357368163044
 20
-399.7267121921532
 10
979.1357368163044
 20
-396.9668921002176
 10
979.1357368163044
 20
-394.1904735066882
 10
978.4209371044817
 20
-391.5221579748222
 10
976.9911248794942
 20
-388.9536462538217
 10
975.5615530943633
 20
-386.3932209823151
 10
973.5665128633118
 20
-384.4147763956717
 10
971.0226856066492
 20
-383.0350036277914
 10
968.462500105732
 20
-381.6551999824742
 10
965.8356528660497
 20
-380.9735974106115
 10
963.1756360759991
 20
-380.9735974106115
 97
        0
 97
        0
 92
        1
 93
        1
 72
     4
 94
        3
 73
     0
 74
     1
 95
       56
 96
       52
 40
0.0
 40
0.0
 40
0.0
 40
0.0
 40
1.0
 40
1.0
 40
1.0
 40
2.0
 40
2.0
 40
2.0
 40
3.0
 40
3.0
 40
3.0
 40
4.0
 40
4.0
 40
4.0
 40
5.0
 40
5.0
 40
5.0
 40
6.0
 40
6.0
 40
6.0
 40
7.0
 40
7.0
 40
7.0
 40
8.0
 40
8.0
 40
8.0
 40
9.0
 40
9.0
 40
9.0
 40
10.0
 40
10.0
 40
10.0
 40
11.0
 40
11.0
 40
11.0
 40
12.0
 40
12.0
 40
12.0
 40
13.0
 40
13.0
 40
13.0
 40
14.0
 40
14.0
 40
14.0
 40
15.0
 40
15.0
 40
15.0
 40
16.0
 40
16.0
 40
16.0
 40
17.0
 40
17.0
 40
17.0
 40
17.0
 10
954.7633861777995
 20
-407.5569186255962
 10
954.7633861777995
 20
-407.5569186255962
 10
954.7633861777995
 20
-386.9418227401229
 10
954.7633861777995
 20
-386.9418227401229
 10
954.7633861777995
 20
-386.9418227401229
 10
961.8456276809738
 20
-386.9418227401229
 10
961.8456276809738
 20
-386.9418227401229
 10
964.2730526029027
 20
-386.9418227401229
 10
966.0186620212062
 20
-387.1248318602602
 10
967.0992672419961
 20
-387.5072358008247
 10
968.1798724627861
 20
-387.8896397413937
 10
969.044484320224
 20
-388.5546438116589
 10
969.692677211624
 20
-389.5022480116304
 10
970.3410829043678
 20
-390.4498214866207
 10
970.6570928990259
 20
-391.4638504179411
 10
970.6570928990259
 20
-392.5278569303691
 10
970.6570928990259
 20
-394.0325749402455
 10
970.125089541014
 20
-395.3376853283862
 10
969.044484320224
 20
-396.4680858471911
 10
967.963666298092
 20
-397.5818878644013
 10
966.5506653792163
 20
-398.205395680684
 10
964.7716461500295
 20
-398.3466957455339
 10
965.4866586631961
 20
-398.6458943768284
 10
966.085056040285
 20
-399.0116998158019
 10
966.5174957797171
 20
-399.4356000103526
 10
967.3486704162315
 20
-400.2419041454714
 10
968.3626688165987
 20
-401.605322090496
 10
969.5596763721223
 20
-403.5254282428232
 10
969.5596763721223
 20
-403.5254282428232
 10
972.0866923226695
 20
-407.5569186255962
 10
972.0866923226695
 20
-407.5569186255962
 10
972.0866923226695
 20
-407.5569186255962
 10
968.0136746137432
 20
-407.5569186255962
 10
968.0136746137432
 20
-407.5569186255962
 10
968.0136746137432
 20
-407.5569186255962
 10
966.184859870249
 20
-404.3151338763464
 10
966.184859870249
 20
-404.3151338763464
 10
964.7550476452598
 20
-401.7549214061428
 10
963.5914772367432
 20
-400.1589116375017
 10
962.7102395384118
 20
-399.5105060688275
 10
962.0950308552092
 20
-399.0365975681925
 10
961.2140332943436
 20
-398.7957064937782
 10
960.0336242435915
 20
-398.7957064937782
 10
960.0336242435915
 20
-398.7957064937782
 10
958.0884343624621
 20
-398.7957064937782
 10
958.0884343624621
 20
-398.7957064937782
 10
958.0884343624621
 20
-398.7957064937782
 10
958.0884343624621
 20
-407.5569186255962
 10
958.0884343624621
 20
-407.5569186255962
 10
958.0884343624621
 20
-407.5569186255962
 10
954.7633861777995
 20
-407.5569186255962
 10
954.7633861777995
 20
-407.5569186255962
 97
        0
 97
        0
 92
        1
 93
        1
 72
     4
 94
        3
 73
     0
 74
     1
 95
       29
 96
       25
 40
0.0
 40
0.0
 40
0.0
 40
0.0
 40
1.0
 40
1.0
 40
1.0
 40
2.0
 40
2.0
 40
2.0
 40
3.0
 40
3.0
 40
3.0
 40
4.0
 40
4.0
 40
4.0
 40
5.0
 40
5.0
 40
5.0
 40
6.0
 40
6.0
 40
6.0
 40
7.0
 40
7.0
 40
7.0
 40
8.0
 40
8.0
 40
8.0
 40
8.0
 10
958.0884343624621
 20
-395.9526810925718
 10
958.0884343624621
 20
-395.9526810925718
 10
962.1284406660925
 20
-395.9526810925718
 10
962.1284406660925
 20
-395.9526810925718
 10
964.0568464382068
 20
-395.9526810925718
 10
965.3702563284623
 20
-395.670080962871
 10
966.0684849342069
 20
-395.0882822018748
 10
966.7834974654415
 20
-394.5145698903743
 10
967.1324916771064
 20
-393.7582740613407
 10
967.1324916771064
 20
-392.8023706105751
 10
967.1324916771064
 20
-392.1954612958862
 10
966.9662664024945
 20
-391.6468595380784
 10
966.6170593982952
 20
-391.1646517866448
 10
966.2846637002112
 20
-390.6826568365168
 10
965.81905436128
 20
-390.3251506483412
 10
965.2040584794213
 20
-390.0840467726248
 10
964.6054483009884
 20
-389.8512421477053
 10
963.4916460706572
 20
-389.734809092206
 10
961.8790374918572
 20
-389.734809092206
 10
961.8790374918572
 20
-389.734809092206
 10
958.0884343624621
 20
-389.734809092206
 10
958.0884343624621
 20
-389.734809092206
 10
958.0884343624621
 20
-389.734809092206
 10
958.0884343624621
 20
-395.9526810925718
 10
958.0884343624621
 20
-395.9526810925718
 97
        0
 97
        0
 75
     2
 76
     1
 98
        0
  0
INSERT
  5
4A
330
1F
100
AcDbEntity
  8
logo
100
AcDbBlockReference
  2
block 2
 10
0.0
 20
0.0
 30
0.0
  0
SPLINE
  5
59
330
1F
100
AcDbEntity
  8
logo
370
     0
100
AcDbSpline
210
0.0
220
0.0
230
1.0
 70
    11
 71
     3
 72
    29
 73
    25
 74
     0
 42
0.0000000001
 43
0.0000000001
 12
1.0
 22
0.0
 32
0.0
 13
1.0
 23
0.0
 33
0.0
 40
0.0
 40
0.0
 40
0.0
 40
0.0
 40
1.0
 40
1.0
 40
1.0
 40
2.0
 40
2.0
 40
2.0
 40
3.0
 40
3.0
 40
3.0
 40
4.0
 40
4.0
 40
4.0
 40
5.0
 40
5.0
 40
5.0
 40
6.0
 40
6.0
 40
6.0
 40
7.0
 40
7.0
 40
7.0
 40
8.0
 40
8.0
 40
8.0
 40
8.0
 10
158.8178405620729
 20
-427.1165806363724
 30
0.0
 10
158.8178405620729
 20
-423.6500474188824
 30
0.0
 10
161.2825057190621
 20
-420.8238333205718
 30
0.0
 10
164.3206704959866
 20
-420.8238333205718
 30
0.0
 10
164.3206704959866
 20
-420.8238333205718
 30
0.0
 10
294.9025971303281
 20
-420.8238333205718
 30
0.0
 10
294.9025971303281
 20
-420.8238333205718
 30
0.0
 10
297.9407619072526
 20
-420.8238333205718
 30
0.0
 10
300.4054270642418
 20
-423.6500474188824
 30
0.0
 10
300.4054270642418
 20
-427.1165806363724
 30
0.0
 10
300.4054270642418
 20
-427.1165806363724
 30
0.0
 10
300.4054270642418
 20
-454.9884440307214
 30
0.0
 10
300.4054270642418
 20
-454.9884440307214
 30
0.0
 10
300.4054270642418
 20
-458.4630636977063
 30
0.0
 10
297.9407619072526
 20
-461.2726792944231
 30
0.0
 10
294.9025971303281
 20
-461.2726792944231
 30
0.0
 10
294.9025971303281
 20
-461.2726792944231
 30
0.0
 10
164.3206704959866
 20
-461.2726792944231
 30
0.0
 10
164.3206704959866
 20
-461.2726792944231
 30
0.0
 10
161.2825057190621
 20
-461.2726792944231
 30
0.0
 10
158.8178405620729
 20
-458.4630636977063
 30
0.0
 10
158.8178405620729
 20
-454.9884440307214
 30
0.0
 10
158.8178405620729
 20
-454.9884440307214
 30
0.0
 10
158.8178405620729
 20
-427.1165806363724
 30
0.0
 10
158.8178405620729
 20
-427.1165806363724
 30
0.0
  0
HATCH
  5
5A
330
1F
100
AcDbEntity
  8
logo
 62
    12
420
 13898006
100
AcDbHatch
 10
0.0
 20
0.0
 30
0.0
210
0.0
220
0.0
230
1.0
  2
SOLID
 70
     1
 71
     0
 91
        1
 92
        1
 93
        1
 72
     4
 94
        3
 73
     0
 74
     1
 95
       29
 96
       25
 40
0.0
 40
0.0
 40
0.0
 40
0.0
 40
1.0
 40
1.0
 40
1.0
 40
2.0
 40
2.0
 40
2.0
 40
3.0
 40
3.0
 40
3.0
 40
4.0
 40
4.0
 40
4.0
 40
5.0
 40
5.0
 40
5.0
 40
6.0
 40
6.0
 40
6.0
 40
7.0
 40
7.0
 40
7.0
 40
8.0
 40
8.0
 40
8.0
 40
8.0
 10
158.8178405620729
 20
-427.1165806363724
 10
158.8178405620729
 20
-423.6500474188824
 10
161.2825057190621
 20
-420.8238333205718
 10
164.3206704959866
 20
-420.8238333205718
 10
164.3206704959866
 20
-420.8238333205718
 10
294.9025971303281
 20
-420.8238333205718
 10
294.9025971303281
 20
-420.8238333205718
 10
297.9407619072526
 20
-420.8238333205718
 10
300.4054270642418
 20
-423.6500474188824
 10
300.4054270642418
 20
-427.1165806363724
 10
300.4054270642418
 20
-427.1165806363724
 10
300.4054270642418
 20
-454.9884440307214
 10
300.4054270642418
 20
-454.9884440307214
 10
300.4054270642418
 20
-458.4630636977063
 10
297.9407619072526
 20
-461.2726792944231
 10
294.9025971303281
 20
-461.2726792944231
 10
294.9025971303281
 20
-461.2726792944231
 10
164.3206704959866
 20
-461.2726792944231
 10
164.3206704959866
 20
-461.2726792944231
 10
161.2825057190621
 20
-461.2726792944231
 10
158.8178405620729
 20
-458.4630636977063
 10
158.8178405620729
 20
-454.9884440307214
 10
158.8178405620729
 20
-454.9884440307214
 10
158.8178405620729
 20
-427.1165806363724
 10
158.8178405620729
 20
-427.1165806363724
 97
        0
 97
        0
 75
     0
 76
     1
 98
        0
  0
SPLINE
  5
5B
330
1F
100
AcDbEntity
  8
logo
370
     0
100
AcDbSpline
210
0.0
220
0.0
230
1.0
 70
    11
 71
     3
 72
    29
 73
    25
 74
     0
 42
0.0000000001
 43
0.0000000001
 12
1.0
 22
0.0
 32
0.0
 13
1.0
 23
0.0
 33
0.0
 40
0.0
 40
0.0
 40
0.0
 40
0.0
 40
1.0
 40
1.0
 40
1.0
 40
2.0
 40
2.0
 40
2.0
 40
3.0
 40
3.0
 40
3.0
 40
4.0
 40
4.0
 40
4.0
 40
5.0
 40
5.0
 40
5.0
 40
6.0
 40
6.0
 40
6.0
 40
7.0
 40
7.0
 40
7.0
 40
8.0
 40
8.0
 40
8.0
 40
8.0
 10
17.16365066682465
 20
-535.0549340909129
 30
0.0
 10
17.16365066682465
 20
-531.5803144239289
 30
0.0
 10
19.62831588607696
 20
-528.770671596516
 30
0.0
 10
22.66648073975193
 20
-528.770671596516
 30
0.0
 10
22.66648073975193
 20
-528.770671596516
 30
0.0
 10
153.2526598345994
 20
-528.770671596516
 30
0.0
 10
153.2526598345994
 20
-528.770671596516
 30
0.0
 10
156.28656858466
 20
-528.770671596516
 30
0.0
 10
158.751240745798
 20
-531.5803144239289
 30
0.0
 10
158.751240745798
 20
-535.0549340909129
 30
0.0
 10
158.751240745798
 20
-535.0549340909129
 30
0.0
 10
158.751240745798
 20
-562.9270102865648
 30
0.0
 10
158.751240745798
 20
-562.9270102865648
 30
0.0
 10
158.751240745798
 20
-566.3933307027528
 30
0.0
 10
156.28656858466
 20
-569.2195448010625
 30
0.0
 10
153.2526598345994
 20
-569.2195448010625
 30
0.0
 10
153.2526598345994
 20
-569.2195448010625
 30
0.0
 10
22.66648073975193
 20
-569.2195448010625
 30
0.0
 10
22.66648073975193
 20
-569.2195448010625
 30
0.0
 10
19.62831588607696
 20
-569.2195448010625
 30
0.0
 10
17.16365066682465
 20
-566.3933307027528
 30
0.0
 10
17.16365066682465
 20
-562.9270102865648
 30
0.0
 10
17.16365066682465
 20
-562.9270102865648
 30
0.0
 10
17.16365066682465
 20
-535.0549340909129
 30
0.0
 10
17.16365066682465
 20
-535.0549340909129
 30
0.0
  0
HATCH
  5
5C
330
1F
100
AcDbEntity
  8
logo
 62
    12
420
 13898006
100
AcDbHatch
 10
0.0
 20
0.0
 30
0.0
210
0.0
220
0.0
230
1.0
  2
SOLID
 70
     1
 71
     0
 91
        1
 92
        1
 93
        1
 72
     4
 94
        3
 73
     0
 74
     1
 95
       29
 96
       25
 40
0.0
 40
0.0
 40
0.0
 40
0.0
 40
1.0
 40
1.0
 40
1.0
 40
2.0
 40
2.0
 40
2.0
 40
3.0
 40
3.0
 40
3.0
 40
4.0
 40
4.0
 40
4.0
 40
5.0
 40
5.0
 40
5.0
 40
6.0
 40
6.0
 40
6.0
 40
7.0
 40
7.0
 40
7.0
 40
8.0
 40
8.0
 40
8.0
 40
8.0
 10
17.16365066682465
 20
-535.0549340909129
 10
17.16365066682465
 20
-531.5803144239289
 10
19.62831588607696
 20
-528.770671596516
 10
22.66648073975193
 20
-528.770671596516
 10
22.66648073975193
 20
-528.770671596516
 10
153.2526598345994
 20
-528.770671596516
 10
153.2526598345994
 20
-528.770671596516
 10
156.28656858466
 20
-528.770671596516
 10
158.751240745798
 20
-531.5803144239289
 10
158.751240745798
 20
-535.0549340909129
 10
158.751240745798
 20
-535.0549340909129
 10
158.751240745798
 20
-562.9270102865648
 10
158.751240745798
 20
-562.9270102865648
 10
158.751240745798
 20
-566.3933307027528
 10
156.28656858466
 20
-569.2195448010625
 10
153.2526598345994
 20
-569.2195448010625
 10
153.2526598345994
 20
-569.2195448010625
 10
22.66648073975193
 20
-569.2195448010625
 10
22.66648073975193
 20
-569.2195448010625
 10
19.62831588607696
 20
-569.2195448010625
 10
17.16365066682465
 20
-566.3933307027528
 10
17.16365066682465
 20
-562.9270102865648
 10
17.16365066682465
 20
-562.9270102865648
 10
17.16365066682465
 20
-535.0549340909129
 10
17.16365066682465
 20
-535.0549340909129
 97
        0
 97
        0
 75
     0
 76
     1
 98
        0
  0
SPLINE
  5
5D
330
1F
100
AcDbEntity
  8
logo
370
     0
100
AcDbSpline
210
0.0
220
0.0
230
1.0
 70
    11
 71
     3
 72
    29
 73
    25
 74
     0
 42
0.0000000001
 43
0.0000000001
 12
1.0
 22
0.0
 32
0.0
 13
1.0
 23
0.0
 33
0.0
 40
0.0
 40
0.0
 40
0.0
 40
0.0
 40
1.0
 40
1.0
 40
1.0
 40
2.0
 40
2.0
 40
2.0
 40
3.0
 40
3.0
 40
3.0
 40
4.0
 40
4.0
 40
4.0
 40
5.0
 40
5.0
 40
5.0
 40
6.0
 40
6.0
 40
6.0
 40
7.0
 40
7.0
 40
7.0
 40
8.0
 40
8.0
 40
8.0
 40
8.0
 10
87.69155042126113
 20
-481.089800588391
 30
0.0
 10
87.69155042126113
 20
-477.6151809214061
 30
0.0
 10
90.1519596135422
 20
-474.7889668230964
 30
0.0
 10
93.19438049418841
 20
-474.7889668230964
 30
0.0
 10
93.19438049418841
 20
-474.7889668230964
 30
0.0
 10
223.7720457536234
 20
-474.7889668230964
 30
0.0
 10
223.7720457536234
 20
-474.7889668230964
 30
0.0
 10
226.8144665574118
 20
-474.7889668230964
 30
0.0
 10
229.279131714401
 20
-477.615180921407
 30
0.0
 10
229.279131714401
 20
-481.089800588391
 30
0.0
 10
229.279131714401
 20
-481.089800588391
 30
0.0
 10
229.279131714401
 20
-508.9535775332442
 30
0.0
 10
229.279131714401
 20
-508.9535775332442
 30
0.0
 10
229.279131714401
 20
-512.4281972002282
 30
0.0
 10
226.8144665574118
 20
-515.2461120477419
 30
0.0
 10
223.7720457536234
 20
-515.2461120477419
 30
0.0
 10
223.7720457536234
 20
-515.2461120477419
 30
0.0
 10
93.19438049418841
 20
-515.2461120477419
 30
0.0
 10
93.19438049418841
 20
-515.2461120477419
 30
0.0
 10
90.1519596135422
 20
-515.2461120477419
 30
0.0
 10
87.69155042126113
 20
-512.4281972002282
 30
0.0
 10
87.69155042126113
 20
-508.9535775332442
 30
0.0
 10
87.69155042126113
 20
-508.9535775332442
 30
0.0
 10
87.69155042126113
 20
-481.089800588391
 30
0.0
 10
87.69155042126113
 20
-481.089800588391
 30
0.0
  0
HATCH
  5
5E
330
1F
100
AcDbEntity
  8
logo
 62
    12
420
 13898006
100
AcDbHatch
 10
0.0
 20
0.0
 30
0.0
210
0.0
220
0.0
230
1.0
  2
SOLID
 70
     1
 71
     0
 91
        1
 92
        1
 93
        1
 72
     4
 94
        3
 73
     0
 74
     1
 95
       29
 96
       25
 40
0.0
 40
0.0
 40
0.0
 40
0.0
 40
1.0
 40
1.0
 40
1.0
 40
2.0
 40
2.0
 40
2.0
 40
3.0
 40
3.0
 40
3.0
 40
4.0
 40
4.0
 40
4.0
 40
5.0
 40
5.0
 40
5.0
 40
6.0
 40
6.0
 40
6.0
 40
7.0
 40
7.0
 40
7.0
 40
8.0
 40
8.0
 40
8.0
 40
8.0
 10
87.69155042126113
 20
-481.089800588391
 10
87.69155042126113
 20
-477.6151809214061
 10
90.1519596135422
 20
-474.7889668230964
 10
93.19438049418841
 20
-474.7889668230964
 10
93.19438049418841
 20
-474.7889668230964
 10
223.7720457536234
 20
-474.7889668230964
 10
223.7720457536234
 20
-474.7889668230964
 10
226.8144665574118
 20
-474.7889668230964
 10
229.279131714401
 20
-477.615180921407
 10
229.279131714401
 20
-481.089800588391
 10
229.279131714401
 20
-481.089800588391
 10
229.279131714401
 20
-508.9535775332442
 10
229.279131714401
 20
-508.9535775332442
 10
229.279131714401
 20
-512.4281972002282
 10
226.8144665574118
 20
-515.2461120477419
 10
223.7720457536234
 20
-515.2461120477419
 10
223.7720457536234
 20
-515.2461120477419
 10
93.19438049418841
 20
-515.2461120477419
 10
93.19438049418841
 20
-515.2461120477419
 10
90.1519596135422
 20
-515.2461120477419
 10
87.69155042126113
 20
-512.4281972002282
 10
87.69155042126113
 20
-508.9535775332442
 10
87.69155042126113
 20
-508.9535775332442
 10
87.69155042126113
 20
-481.089800588391
 10
87.69155042126113
 20
-481.089800588391
 97
        0
 97
        0
 75
     0
 76
     1
 98
        0
  0
SPLINE
  5
5F
330
1F
100
AcDbEntity
  8
logo
370
     0
100
AcDbSpline
210
0.0
220
0.0
230
1.0
 70
    11
 71
     3
 72
    29
 73
    25
 74
     0
 42
0.0000000001
 43
0.0000000001
 12
1.0
 22
0.0
 32
0.0
 13
1.0
 23
0.0
 33
0.0
 40
0.0
 40
0.0
 40
0.0
 40
0.0
 40
1.0
 40
1.0
 40
1.0
 40
2.0
 40
2.0
 40
2.0
 40
3.0
 40
3.0
 40
3.0
 40
4.0
 40
4.0
 40
4.0
 40
5.0
 40
5.0
 40
5.0
 40
6.0
 40
6.0
 40
6.0
 40
7.0
 40
7.0
 40
7.0
 40
8.0
 40
8.0
 40
8.0
 40
8.0
 10
321.0039586823659
 20
-438.3633422740368
 30
0.0
 10
321.0039586823659
 20
-418.413220166015
 30
0.0
 10
337.1760095605023
 20
-402.2368859290618
 30
0.0
 10
357.1261354858843
 20
-402.2368859290618
 30
0.0
 10
357.1261354858843
 20
-402.2368859290618
 30
0.0
 10
920.6153674351863
 20
-402.2368859290618
 30
0.0
 10
920.6153674351863
 20
-402.2368859290618
 30
0.0
 10
940.5654933605674
 20
-402.2368859290618
 30
0.0
 10
956.7252017607971
 20
-418.413220166015
 30
0.0
 10
956.7252017607971
 20
-438.3633422740368
 30
0.0
 10
956.7252017607971
 20
-438.3633422740368
 30
0.0
 10
956.7252017607971
 20
-551.0565280313149
 30
0.0
 10
956.7252017607971
 20
-551.0565280313149
 30
0.0
 10
956.7252017607971
 20
-570.9983508885398
 30
0.0
 10
940.5654933605674
 20
-587.1746546982831
 30
0.0
 10
920.6153674351863
 20
-587.1746546982831
 30
0.0
 10
920.6153674351863
 20
-587.1746546982831
 30
0.0
 10
357.1261354858843
 20
-587.1746546982831
 30
0.0
 10
357.1261354858843
 20
-587.1746546982831
 30
0.0
 10
337.1760095605023
 20
-587.1746546982831
 30
0.0
 10
321.0039586823659
 20
-570.9983508885398
 30
0.0
 10
321.0039586823659
 20
-551.0565280313149
 30
0.0
 10
321.0039586823659
 20
-551.0565280313149
 30
0.0
 10
321.0039586823659
 20
-438.3633422740368
 30
0.0
 10
321.0039586823659
 20
-438.3633422740368
 30
0.0
  0
HATCH
  5
60
330
1F
100
AcDbEntity
  8
logo
 62
    12
420
 13898006
100
AcDbHatch
 10
0.0
 20
0.0
 30
0.0
210
0.0
220
0.0
230
1.0
  2
SOLID
 70
     1
 71
     0
 91
        1
 92
        1
 93
        1
 72
     4
 94
        3
 73
     0
 74
     1
 95
       29
 96
       25
 40
0.0
 40
0.0
 40
0.0
 40
0.0
 40
1.0
 40
1.0
 40
1.0
 40
2.0
 40
2.0
 40
2.0
 40
3.0
 40
3.0
 40
3.0
 40
4.0
 40
4.0
 40
4.0
 40
5.0
 40
5.0
 40
5.0
 40
6.0
 40
6.0
 40
6.0
 40
7.0
 40
7.0
 40
7.0
 40
8.0
 40
8.0
 40
8.0
 40
8.0
 10
321.0039586823659
 20
-438.3633422740368
 10
321.0039586823659
 20
-418.413220166015
 10
337.1760095605023
 20
-402.2368859290618
 10
357.1261354858843
 20
-402.2368859290618
 10
357.1261354858843
 20
-402.2368859290618
 10
920.6153674351863
 20
-402.2368859290618
 10
920.6153674351863
 20
-402.2368859290618
 10
940.5654933605674
 20
-402.2368859290618
 10
956.7252017607971
 20
-418.413220166015
 10
956.7252017607971
 20
-438.3633422740368
 10
956.7252017607971
 20
-438.3633422740368
 10
956.7252017607971
 20
-551.0565280313149
 10
956.7252017607971
 20
-551.0565280313149
 10
956.7252017607971
 20
-570.9983508885398
 10
940.5654933605674
 20
-587.1746546982831
 10
920.6153674351863
 20
-587.1746546982831
 10
920.6153674351863
 20
-587.1746546982831
 10
357.1261354858843
 20
-587.1746546982831
 10
357.1261354858843
 20
-587.1746546982831
 10
337.1760095605023
 20
-587.1746546982831
 10
321.0039586823659
 20
-570.9983508885398
 10
321.0039586823659
 20
-551.0565280313149
 10
321.0039586823659
 20
-551.0565280313149
 10
321.0039586823659
 20
-438.3633422740368
 10
321.0039586823659
 20
-438.3633422740368
 97
        0
 97
        0
 75
     0
 76
     1
 98
        0
  0
SPLINE
  5
61
330
1F
100
AcDbEntity
  8
logo
370
     0
100
AcDbSpline
210
0.0
220
0.0
230
1.0
 70
    11
 71
     3
 72
    14
 73
    10
 74
     0
 42
0.0000000001
 43
0.0000000001
 12
1.0
 22
0.0
 32
0.0
 13
1.0
 23
0.0
 33
0.0
 40
0.0
 40
0.0
 40
0.0
 40
0.0
 40
1.0
 40
1.0
 40
1.0
 40
2.0
 40
2.0
 40
2.0
 40
3.0
 40
3.0
 40
3.0
 40
3.0
 10
699.3707053368107
 20
-557.4822761611686
 30
0.0
 10
698.9551043135325
 20
-557.4988481578021
 30
0.0
 10
698.5143927317567
 20
-557.5071739135601
 30
0.0
 10
698.0572954465551
 20
-557.5071739135601
 30
0.0
 10
698.0572954465551
 20
-557.5071739135601
 30
0.0
 10
698.5975980569492
 20
-557.5071739135601
 30
0.0
 10
698.5975980569492
 20
-557.5071739135601
 30
0.0
 10
698.87189898834
 20
-557.5071739135601
 30
0.0
 10
699.1379006673451
 20
-557.4988481578021
 30
0.0
 10
699.3707053368107
 20
-557.4822761611686
 30
0.0
  0
SPLINE
  5
62
330
1F
100
AcDbEntity
  8
logo
370
     0
100
AcDbSpline
210
0.0
220
0.0
230
1.0
 70
    11
 71
     3
 72
    14
 73
    10
 74
     0
 42
0.0000000001
 43
0.0000000001
 12
1.0
 22
0.0
 32
0.0
 13
1.0
 23
0.0
 33
0.0
 40
0.0
 40
0.0
 40
0.0
 40
0.0
 40
1.0
 40
1.0
 40
1.0
 40
2.0
 40
2.0
 40
2.0
 40
3.0
 40
3.0
 40
3.0
 40
3.0
 10
746.7356027044862
 20
-557.5071739135601
 30
0.0
 10
746.7356027044862
 20
-557.5071739135601
 30
0.0
 10
747.2759053148802
 20
-557.5071739135601
 30
0.0
 10
747.2759053148802
 20
-557.5071739135601
 30
0.0
 10
746.8185952283347
 20
-557.5071739135601
 30
0.0
 10
746.3863957002868
 20
-557.4988481578021
 30
0.0
 10
745.9624954246246
 20
-557.4822761611686
 30
0.0
 10
746.203599346476
 20
-557.4988481578021
 30
0.0
 10
746.4530025207096
 20
-557.5071739135601
 30
0.0
 10
746.7356027044862
 20
-557.5071739135601
 30
0.0
  0
SPLINE
  5
63
330
1F
100
AcDbEntity
  8
logo
370
     0
100
AcDbSpline
210
0.0
220
0.0
230
1.0
 70
    11
 71
     3
 72
   104
 73
   100
 74
     0
 42
0.0000000001
 43
0.0000000001
 12
1.0
 22
0.0
 32
0.0
 13
1.0
 23
0.0
 33
0.0
 40
0.0
 40
0.0
 40
0.0
 40
0.0
 40
1.0
 40
1.0
 40
1.0
 40
2.0
 40
2.0
 40
2.0
 40
3.0
 40
3.0
 40
3.0
 40
4.0
 40
4.0
 40
4.0
 40
5.0
 40
5.0
 40
5.0
 40
6.0
 40
6.0
 40
6.0
 40
7.0
 40
7.0
 40
7.0
 40
8.0
 40
8.0
 40
8.0
 40
9.0
 40
9.0
 40
9.0
 40
10.0
 40
10.0
 40
10.0
 40
11.0
 40
11.0
 40
11.0
 40
12.0
 40
12.0
 40
12.0
 40
13.0
 40
13.0
 40
13.0
 40
14.0
 40
14.0
 40
14.0
 40
15.0
 40
15.0
 40
15.0
 40
16.0
 40
16.0
 40
16.0
 40
17.0
 40
17.0
 40
17.0
 40
18.0
 40
18.0
 40
18.0
 40
19.0
 40
19.0
 40
19.0
 40
20.0
 40
20.0
 40
20.0
 40
21.0
 40
21.0
 40
21.0
 40
22.0
 40
22.0
 40
22.0
 40
23.0
 40
23.0
 40
23.0
 40
24.0
 40
24.0
 40
24.0
 40
25.0
 40
25.0
 40
25.0
 40
26.0
 40
26.0
 40
26.0
 40
27.0
 40
27.0
 40
27.0
 40
28.0
 40
28.0
 40
28.0
 40
29.0
 40
29.0
 40
29.0
 40
30.0
 40
30.0
 40
30.0
 40
31.0
 40
31.0
 40
31.0
 40
32.0
 40
32.0
 40
32.0
 40
33.0
 40
33.0
 40
33.0
 40
33.0
 10
778.9092505848512
 20
-550.9486377709545
 30
0.0
 10
777.6956445245596
 20
-555.7532655784744
 30
0.0
 10
773.4021646240744
 20
-557.5071739135601
 30
0.0
 10
768.48113356248
 20
-557.5071739135601
 30
0.0
 10
768.48113356248
 20
-557.5071739135601
 30
0.0
 10
767.9242324473144
 20
-557.5071739135601
 30
0.0
 10
767.9242324473144
 20
-557.5071739135601
 30
0.0
 10
767.9242324473144
 20
-557.5071739135601
 30
0.0
 10
747.2759053148802
 20
-557.5071739135601
 30
0.0
 10
747.2759053148802
 20
-557.5071739135601
 30
0.0
 10
747.2759053148802
 20
-557.5071739135601
 30
0.0
 10
746.7356027044862
 20
-557.5071739135601
 30
0.0
 10
746.7356027044862
 20
-557.5071739135601
 30
0.0
 10
746.4530025207096
 20
-557.5071739135601
 30
0.0
 10
746.203599346476
 20
-557.4988481578021
 30
0.0
 10
745.9624954246246
 20
-557.4822761611686
 30
0.0
 10
741.9309739776236
 20
-557.3158390330391
 30
0.0
 10
739.9025515742032
 20
-556.185465023822
 30
0.0
 10
738.89685242622
 20
-551.7964381600577
 30
0.0
 10
738.89685242622
 20
-551.7964381600577
 30
0.0
 10
722.6624507545257
 20
-489.1696532424658
 30
0.0
 10
722.6624507545257
 20
-489.1696532424658
 30
0.0
 10
722.6624507545257
 20
-489.1696532424658
 30
0.0
 10
706.4363483352154
 20
-551.7964381600577
 30
0.0
 10
706.4363483352154
 20
-551.7964381600577
 30
0.0
 10
705.438735638274
 20
-556.185465023822
 30
0.0
 10
703.393927531426
 20
-557.3158390330391
 30
0.0
 10
699.3707053368107
 20
-557.4822761611686
 30
0.0
 10
699.1379006673451
 20
-557.4988481578021
 30
0.0
 10
698.87189898834
 20
-557.5071739135601
 30
0.0
 10
698.5975980569492
 20
-557.5071739135601
 30
0.0
 10
698.5975980569492
 20
-557.5071739135601
 30
0.0
 10
698.0572954465551
 20
-557.5071739135601
 30
0.0
 10
698.0572954465551
 20
-557.5071739135601
 30
0.0
 10
698.0572954465551
 20
-557.5071739135601
 30
0.0
 10
677.408968314121
 20
-557.5071739135601
 30
0.0
 10
677.408968314121
 20
-557.5071739135601
 30
0.0
 10
677.408968314121
 20
-557.5071739135601
 30
0.0
 10
676.8435551452276
 20
-557.5071739135601
 30
0.0
 10
676.8435551452276
 20
-557.5071739135601
 30
0.0
 10
671.9350793628837
 20
-557.5071739135601
 30
0.0
 10
667.6415994623967
 20
-555.7532655784744
 30
0.0
 10
666.4279934021051
 20
-550.9486377709545
 30
0.0
 10
666.4279934021051
 20
-550.9486377709545
 30
0.0
 10
637.9077189818654
 20
-437.8979458255008
 30
0.0
 10
637.9077189818654
 20
-437.8979458255008
 30
0.0
 10
636.8062592294409
 20
-433.0599082134922
 30
0.0
 10
638.5559118732654
 20
-431.6217970112939
 30
0.0
 10
642.2135413602573
 20
-431.6217970112939
 30
0.0
 10
642.2135413602573
 20
-431.6217970112939
 30
0.0
 10
662.8618684926914
 20
-431.6217970112939
 30
0.0
 10
662.8618684926914
 20
-431.6217970112939
 30
0.0
 10
667.7746003019001
 20
-431.6217970112939
 30
0.0
 10
670.1354184034062
 20
-432.4947079540898
 30
0.0
 10
671.2409213813517
 20
-437.3325327647972
 30
0.0
 10
671.2409213813517
 20
-437.3325327647972
 30
0.0
 10
686.7439248364535
 20
-495.6949643156222
 30
0.0
 10
686.7439248364535
 20
-495.6949643156222
 30
0.0
 10
686.7439248364535
 20
-495.6949643156222
 30
0.0
 10
701.6151211035831
 20
-438.1805459552015
 30
0.0
 10
701.6151211035831
 20
-438.1805459552015
 30
0.0
 10
702.6874270719891
 20
-433.9577169086788
 30
0.0
 10
706.1454488990548
 20
-432.079107010336
 30
0.0
 10
710.3099711855593
 20
-431.6967030697688
 30
0.0
 10
710.6591781897569
 20
-431.6469075649884
 30
0.0
 10
711.0665009174536
 20
-431.6217970112939
 30
0.0
 10
711.5401757506206
 20
-431.6217970112939
 30
0.0
 10
711.5401757506206
 20
-431.6217970112939
 30
0.0
 10
712.0390030804592
 20
-431.6217970112939
 30
0.0
 10
712.0390030804592
 20
-431.6217970112939
 30
0.0
 10
712.0390030804592
 20
-431.6217970112939
 30
0.0
 10
733.2942186623441
 20
-431.6217970112939
 30
0.0
 10
733.2942186623441
 20
-431.6217970112939
 30
0.0
 10
733.2942186623441
 20
-431.6217970112939
 30
0.0
 10
733.7928122094709
 20
-431.6217970112939
 30
0.0
 10
733.7928122094709
 20
-431.6217970112939
 30
0.0
 10
734.2667208007861
 20
-431.6217970112939
 30
0.0
 10
734.6740225716785
 20
-431.6469075649884
 30
0.0
 10
735.0315288282618
 20
-431.6967030697688
 30
0.0
 10
739.1877518623805
 20
-432.079107010336
 30
0.0
 10
742.6457736894463
 20
-433.9577169086788
 30
0.0
 10
743.7097804054665
 20
-438.1805459552015
 30
0.0
 10
743.7097804054665
 20
-438.1805459552015
 30
0.0
 10
758.5892980823082
 20
-495.6949643156222
 30
0.0
 10
758.5892980823082
 20
-495.6949643156222
 30
0.0
 10
758.5892980823082
 20
-495.6949643156222
 30
0.0
 10
774.0880233532207
 20
-437.3325327647972
 30
0.0
 10
774.0880233532207
 20
-437.3325327647972
 30
0.0
 10
775.2018255835501
 20
-432.4947079540898
 30
0.0
 10
777.5626663216935
 20
-431.6217970112939
 30
0.0
 10
782.4670762418809
 20
-431.6217970112939
 30
0.0
 10
782.4670762418809
 20
-431.6217970112939
 30
0.0
 10
803.1154033743151
 20
-431.6217970112939
 30
0.0
 10
803.1154033743151
 20
-431.6217970112939
 30
0.0
 10
806.7730328613052
 20
-431.6217970112939
 30
0.0
 10
808.5186422796087
 20
-433.0599082134922
 30
0.0
 10
807.421438554049
 20
-437.8979458255008
 30
0.0
 10
807.421438554049
 20
-437.8979458255008
 30
0.0
 10
778.9092505848512
 20
-550.9486377709545
 30
0.0
 10
778.9092505848512
 20
-550.9486377709545
 30
0.0
  0
HATCH
  5
64
330
1F
100
AcDbEntity
  8
logo
 62
     7
420
 16776959
100
AcDbHatch
 10
0.0
 20
0.0
 30
0.0
210
0.0
220
0.0
230
1.0
  2
SOLID
 70
     1
 71
     0
 91
        3
 92
        1
 93
        1
 72
     4
 94
        3
 73
     0
 74
     1
 95
       14
 96
       10
 40
0.0
 40
0.0
 40
0.0
 40
0.0
 40
1.0
 40
1.0
 40
1.0
 40
2.0
 40
2.0
 40
2.0
 40
3.0
 40
3.0
 40
3.0
 40
3.0
 10
699.3707053368107
 20
-557.4822761611686
 10
698.9551043135325
 20
-557.4988481578021
 10
698.5143927317567
 20
-557.5071739135601
 10
698.0572954465551
 20
-557.5071739135601
 10
698.0572954465551
 20
-557.5071739135601
 10
698.5975980569492
 20
-557.5071739135601
 10
698.5975980569492
 20
-557.5071739135601
 10
698.87189898834
 20
-557.5071739135601
 10
699.1379006673451
 20
-557.4988481578021
 10
699.3707053368107
 20
-557.4822761611686
 97
        0
 97
        0
 92
        1
 93
        1
 72
     4
 94
        3
 73
     0
 74
     1
 95
       14
 96
       10
 40
0.0
 40
0.0
 40
0.0
 40
0.0
 40
1.0
 40
1.0
 40
1.0
 40
2.0
 40
2.0
 40
2.0
 40
3.0
 40
3.0
 40
3.0
 40
3.0
 10
746.7356027044862
 20
-557.5071739135601
 10
746.7356027044862
 20
-557.5071739135601
 10
747.2759053148802
 20
-557.5071739135601
 10
747.2759053148802
 20
-557.5071739135601
 10
746.8185952283347
 20
-557.5071739135601
 10
746.3863957002868
 20
-557.4988481578021
 10
745.9624954246246
 20
-557.4822761611686
 10
746.203599346476
 20
-557.4988481578021
 10
746.4530025207096
 20
-557.5071739135601
 10
746.7356027044862
 20
-557.5071739135601
 97
        0
 97
        0
 92
        1
 93
        1
 72
     4
 94
        3
 73
     0
 74
     1
 95
      104
 96
      100
 40
0.0
 40
0.0
 40
0.0
 40
0.0
 40
1.0
 40
1.0
 40
1.0
 40
2.0
 40
2.0
 40
2.0
 40
3.0
 40
3.0
 40
3.0
 40
4.0
 40
4.0
 40
4.0
 40
5.0
 40
5.0
 40
5.0
 40
6.0
 40
6.0
 40
6.0
 40
7.0
 40
7.0
 40
7.0
 40
8.0
 40
8.0
 40
8.0
 40
9.0
 40
9.0
 40
9.0
 40
10.0
 40
10.0
 40
10.0
 40
11.0
 40
11.0
 40
11.0
 40
12.0
 40
12.0
 40
12.0
 40
13.0
 40
13.0
 40
13.0
 40
14.0
 40
14.0
 40
14.0
 40
15.0
 40
15.0
 40
15.0
 40
16.0
 40
16.0
 40
16.0
 40
17.0
 40
17.0
 40
17.0
 40
18.0
 40
18.0
 40
18.0
 40
19.0
 40
19.0
 40
19.0
 40
20.0
 40
20.0
 40
20.0
 40
21.0
 40
21.0
 40
21.0
 40
22.0
 40
22.0
 40
22.0
 40
23.0
 40
23.0
 40
23.0
 40
24.0
 40
24.0
 40
24.0
 40
25.0
 40
25.0
 40
25.0
 40
26.0
 40
26.0
 40
26.0
 40
27.0
 40
27.0
 40
27.0
 40
28.0
 40
28.0
 40
28.0
 40
29.0
 40
29.0
 40
29.0
 40
30.0
 40
30.0
 40
30.0
 40
31.0
 40
31.0
 40
31.0
 40
32.0
 40
32.0
 40
32.0
 40
33.0
 40
33.0
 40
33.0
 40
33.0
 10
778.9092505848512
 20
-550.9486377709545
 10
777.6956445245596
 20
-555.7532655784744
 10
773.4021646240744
 20
-557.5071739135601
 10
768.48113356248
 20
-557.5071739135601
 10
768.48113356248
 20
-557.5071739135601
 10
767.9242324473144
 20
-557.5071739135601
 10
767.9242324473144
 20
-557.5071739135601
 10
767.9242324473144
 20
-557.5071739135601
 10
747.2759053148802
 20
-557.5071739135601
 10
747.2759053148802
 20
-557.5071739135601
 10
747.2759053148802
 20
-557.5071739135601
 10
746.7356027044862
 20
-557.5071739135601
 10
746.7356027044862
 20
-557.5071739135601
 10
746.4530025207096
 20
-557.5071739135601
 10
746.203599346476
 20
-557.4988481578021
 10
745.9624954246246
 20
-557.4822761611686
 10
741.9309739776236
 20
-557.3158390330391
 10
739.9025515742032
 20
-556.185465023822
 10
738.89685242622
 20
-551.7964381600577
 10
738.89685242622
 20
-551.7964381600577
 10
722.6624507545257
 20
-489.1696532424658
 10
722.6624507545257
 20
-489.1696532424658
 10
722.6624507545257
 20
-489.1696532424658
 10
706.4363483352154
 20
-551.7964381600577
 10
706.4363483352154
 20
-551.7964381600577
 10
705.438735638274
 20
-556.185465023822
 10
703.393927531426
 20
-557.3158390330391
 10
699.3707053368107
 20
-557.4822761611686
 10
699.1379006673451
 20
-557.4988481578021
 10
698.87189898834
 20
-557.5071739135601
 10
698.5975980569492
 20
-557.5071739135601
 10
698.5975980569492
 20
-557.5071739135601
 10
698.0572954465551
 20
-557.5071739135601
 10
698.0572954465551
 20
-557.5071739135601
 10
698.0572954465551
 20
-557.5071739135601
 10
677.408968314121
 20
-557.5071739135601
 10
677.408968314121
 20
-557.5071739135601
 10
677.408968314121
 20
-557.5071739135601
 10
676.8435551452276
 20
-557.5071739135601
 10
676.8435551452276
 20
-557.5071739135601
 10
671.9350793628837
 20
-557.5071739135601
 10
667.6415994623967
 20
-555.7532655784744
 10
666.4279934021051
 20
-550.9486377709545
 10
666.4279934021051
 20
-550.9486377709545
 10
637.9077189818654
 20
-437.8979458255008
 10
637.9077189818654
 20
-437.8979458255008
 10
636.8062592294409
 20
-433.0599082134922
 10
638.5559118732654
 20
-431.6217970112939
 10
642.2135413602573
 20
-431.6217970112939
 10
642.2135413602573
 20
-431.6217970112939
 10
662.8618684926914
 20
-431.6217970112939
 10
662.8618684926914
 20
-431.6217970112939
 10
667.7746003019001
 20
-431.6217970112939
 10
670.1354184034062
 20
-432.4947079540898
 10
671.2409213813517
 20
-437.3325327647972
 10
671.2409213813517
 20
-437.3325327647972
 10
686.7439248364535
 20
-495.6949643156222
 10
686.7439248364535
 20
-495.6949643156222
 10
686.7439248364535
 20
-495.6949643156222
 10
701.6151211035831
 20
-438.1805459552015
 10
701.6151211035831
 20
-438.1805459552015
 10
702.6874270719891
 20
-433.9577169086788
 10
706.1454488990548
 20
-432.079107010336
 10
710.3099711855593
 20
-431.6967030697688
 10
710.6591781897569
 20
-431.6469075649884
 10
711.0665009174536
 20
-431.6217970112939
 10
711.5401757506206
 20
-431.6217970112939
 10
711.5401757506206
 20
-431.6217970112939
 10
712.0390030804592
 20
-431.6217970112939
 10
712.0390030804592
 20
-431.6217970112939
 10
712.0390030804592
 20
-431.6217970112939
 10
733.2942186623441
 20
-431.6217970112939
 10
733.2942186623441
 20
-431.6217970112939
 10
733.2942186623441
 20
-431.6217970112939
 10
733.7928122094709
 20
-431.6217970112939
 10
733.7928122094709
 20
-431.6217970112939
 10
734.2667208007861
 20
-431.6217970112939
 10
734.6740225716785
 20
-431.6469075649884
 10
735.0315288282618
 20
-431.6967030697688
 10
739.1877518623805
 20
-432.079107010336
 10
742.6457736894463
 20
-433.9577169086788
 10
743.7097804054665
 20
-438.1805459552015
 10
743.7097804054665
 20
-438.1805459552015
 10
758.5892980823082
 20
-495.6949643156222
 10
758.5892980823082
 20
-495.6949643156222
 10
758.5892980823082
 20
-495.6949643156222
 10
774.0880233532207
 20
-437.3325327647972
 10
774.0880233532207
 20
-437.3325327647972
 10
775.2018255835501
 20
-432.4947079540898
 10
777.5626663216935
 20
-431.6217970112939
 10
782.4670762418809
 20
-431.6217970112939
 10
782.4670762418809
 20
-431.6217970112939
 10
803.1154033743151
 20
-431.6217970112939
 10
803.1154033743151
 20
-431.6217970112939
 10
806.7730328613052
 20
-431.6217970112939
 10
808.5186422796087
 20
-433.0599082134922
 10
807.421438554049
 20
-437.8979458255008
 10
807.421438554049
 20
-437.8979458255008
 10
778.9092505848512
 20
-550.9486377709545
 10
778.9092505848512
 20
-550.9486377709545
 97
        0
 97
        0
 75
     2
 76
     1
 98
        0
  0
SPLINE
  5
65
330
1F
100
AcDbEntity
  8
logo
370
     0
100
AcDbSpline
210
0.0
220
0.0
230
1.0
 70
    11
 71
     3
 72
    14
 73
    10
 74
     0
 42
0.0000000001
 43
0.0000000001
 12
1.0
 22
0.0
 32
0.0
 13
1.0
 23
0.0
 33
0.0
 40
0.0
 40
0.0
 40
0.0
 40
0.0
 40
1.0
 40
1.0
 40
1.0
 40
2.0
 40
2.0
 40
2.0
 40
3.0
 40
3.0
 40
3.0
 40
3.0
 10
886.2845523387605
 20
-431.6217970112939
 30
0.0
 10
886.5839638286488
 20
-431.6217970112939
 30
0.0
 10
886.8831625171933
 20
-431.6300962620917
 30
0.0
 10
887.1823612057378
 20
-431.6469075649884
 30
0.0
 10
886.9995648519252
 20
-431.6300962620917
 30
0.0
 10
886.8165556967706
 20
-431.6217970112939
 30
0.0
 10
886.633759342958
 20
-431.6217970112939
 30
0.0
 10
886.633759342958
 20
-431.6217970112939
 30
0.0
 10
886.2845523387605
 20
-431.6217970112939
 30
0.0
 10
886.2845523387605
 20
-431.6217970112939
 30
0.0
  0
SPLINE
  5
66
330
1F
100
AcDbEntity
  8
logo
370
     0
100
AcDbSpline
210
0.0
220
0.0
230
1.0
 70
    11
 71
     3
 72
    62
 73
    58
 74
     0
 42
0.0000000001
 43
0.0000000001
 12
1.0
 22
0.0
 32
0.0
 13
1.0
 23
0.0
 33
0.0
 40
0.0
 40
0.0
 40
0.0
 40
0.0
 40
1.0
 40
1.0
 40
1.0
 40
2.0
 40
2.0
 40
2.0
 40
3.0
 40
3.0
 40
3.0
 40
4.0
 40
4.0
 40
4.0
 40
5.0
 40
5.0
 40
5.0
 40
6.0
 40
6.0
 40
6.0
 40
7.0
 40
7.0
 40
7.0
 40
8.0
 40
8.0
 40
8.0
 40
9.0
 40
9.0
 40
9.0
 40
10.0
 40
10.0
 40
10.0
 40
11.0
 40
11.0
 40
11.0
 40
12.0
 40
12.0
 40
12.0
 40
13.0
 40
13.0
 40
13.0
 40
14.0
 40
14.0
 40
14.0
 40
15.0
 40
15.0
 40
15.0
 40
16.0
 40
16.0
 40
16.0
 40
17.0
 40
17.0
 40
17.0
 40
18.0
 40
18.0
 40
18.0
 40
19.0
 40
19.0
 40
19.0
 40
19.0
 10
885.8191558011731
 20
-527.174661787556
 30
0.0
 10
885.8191558011731
 20
-527.174661787556
 30
0.0
 10
839.1005603040267
 20
-527.174661787556
 30
0.0
 10
839.1005603040267
 20
-527.174661787556
 30
0.0
 10
839.1005603040267
 20
-527.174661787556
 30
0.0
 10
833.0988998304238
 20
-552.1954406022178
 30
0.0
 10
833.0988998304238
 20
-552.1954406022178
 30
0.0
 10
832.0182946096338
 20
-557.0498373982118
 30
0.0
 10
829.6740750128974
 20
-557.9310741081117
 30
0.0
 10
824.852847781267
 20
-557.9310741081117
 30
0.0
 10
824.852847781267
 20
-557.9310741081117
 30
0.0
 10
804.5120185897631
 20
-557.9310741081117
 30
0.0
 10
804.5120185897631
 20
-557.9310741081117
 30
0.0
 10
800.9209959231939
 20
-557.9310741081117
 30
0.0
 10
798.4603739917256
 20
-556.4846636551174
 30
0.0
 10
799.5409792125156
 20
-551.6302403428163
 30
0.0
 10
799.5409792125156
 20
-551.6302403428163
 30
0.0
 10
828.3606651226419
 20
-438.2054437075931
 30
0.0
 10
828.3606651226419
 20
-438.2054437075931
 30
0.0
 10
829.5576726781655
 20
-433.3842173984776
 30
0.0
 10
833.7805265895295
 20
-431.6217970112939
 30
0.0
 10
838.618328269109
 20
-431.6217970112939
 30
0.0
 10
838.618328269109
 20
-431.6217970112939
 30
0.0
 10
842.292580532725
 20
-431.6217970112939
 30
0.0
 10
842.292580532725
 20
-431.6217970112939
 30
0.0
 10
842.292580532725
 20
-431.6217970112939
 30
0.0
 10
860.0480619337868
 20
-431.6217970112939
 30
0.0
 10
860.0480619337868
 20
-431.6217970112939
 30
0.0
 10
860.0480619337868
 20
-431.6217970112939
 30
0.0
 10
864.8526906606494
 20
-431.6217970112939
 30
0.0
 10
864.8526906606494
 20
-431.6217970112939
 30
0.0
 10
864.8526906606494
 20
-431.6217970112939
 30
0.0
 10
886.2845523387605
 20
-431.6217970112939
 30
0.0
 10
886.2845523387605
 20
-431.6217970112939
 30
0.0
 10
886.2845523387605
 20
-431.6217970112939
 30
0.0
 10
886.633759342958
 20
-431.6217970112939
 30
0.0
 10
886.633759342958
 20
-431.6217970112939
 30
0.0
 10
886.8165556967706
 20
-431.6217970112939
 30
0.0
 10
886.9995648519252
 20
-431.6300962620917
 30
0.0
 10
887.1823612057378
 20
-431.6469075649884
 30
0.0
 10
891.637995729745
 20
-431.8545719572094
 30
0.0
 10
895.4284132548964
 20
-433.6834160297749
 30
0.0
 10
896.5590524340805
 20
-438.2054437075931
 30
0.0
 10
896.5590524340805
 20
-438.2054437075931
 30
0.0
 10
925.3702270183057
 20
-551.6302403428163
 30
0.0
 10
925.3702270183057
 20
-551.6302403428163
 30
0.0
 10
926.4508058685278
 20
-556.4846636551174
 30
0.0
 10
924.0069952431732
 20
-557.9310741081117
 30
0.0
 10
920.3993740718342
 20
-557.9310741081117
 30
0.0
 10
920.3993740718342
 20
-557.9310741081117
 30
0.0
 10
900.0668441327143
 20
-557.9310741081117
 30
0.0
 10
900.0668441327143
 20
-557.9310741081117
 30
0.0
 10
895.2290440054567
 20
-557.9310741081117
 30
0.0
 10
892.9013973043475
 20
-557.0498373982118
 30
0.0
 10
891.8041935787878
 20
-552.1954406022178
 30
0.0
 10
891.8041935787878
 20
-552.1954406022178
 30
0.0
 10
885.8191558011731
 20
-527.174661787556
 30
0.0
 10
885.8191558011731
 20
-527.174661787556
 30
0.0
  0
SPLINE
  5
67
330
1F
100
AcDbEntity
  8
logo
370
     0
100
AcDbSpline
210
0.0
220
0.0
230
1.0
 70
    11
 71
     3
 72
    17
 73
    13
 74
     0
 42
0.0000000001
 43
0.0000000001
 12
1.0
 22
0.0
 32
0.0
 13
1.0
 23
0.0
 33
0.0
 40
0.0
 40
0.0
 40
0.0
 40
0.0
 40
1.0
 40
1.0
 40
1.0
 40
2.0
 40
2.0
 40
2.0
 40
3.0
 40
3.0
 40
3.0
 40
4.0
 40
4.0
 40
4.0
 40
4.0
 10
846.7479779835339
 20
-497.0833080792981
 30
0.0
 10
846.7479779835339
 20
-497.0833080792981
 30
0.0
 10
878.1549026243356
 20
-497.0833080792981
 30
0.0
 10
878.1549026243356
 20
-497.0833080792981
 30
0.0
 10
878.1549026243356
 20
-497.0833080792981
 30
0.0
 10
869.1919228499228
 20
-463.3176998113086
 30
0.0
 10
869.1919228499228
 20
-463.3176998113086
 30
0.0
 10
866.0997065318243
 20
-459.0865715139889
 30
0.0
 10
858.801258863954
 20
-459.0865715139889
 30
0.0
 10
855.7090425458573
 20
-463.3176998113086
 30
0.0
 10
855.7090425458573
 20
-463.3176998113086
 30
0.0
 10
846.7479779835339
 20
-497.0833080792981
 30
0.0
 10
846.7479779835339
 20
-497.0833080792981
 30
0.0
  0
HATCH
  5
68
330
1F
100
AcDbEntity
  8
logo
 62
     7
420
 16776959
100
AcDbHatch
 10
0.0
 20
0.0
 30
0.0
210
0.0
220
0.0
230
1.0
  2
SOLID
 70
     1
 71
     0
 91
        3
 92
        1
 93
        1
 72
     4
 94
        3
 73
     0
 74
     1
 95
       14
 96
       10
 40
0.0
 40
0.0
 40
0.0
 40
0.0
 40
1.0
 40
1.0
 40
1.0
 40
2.0
 40
2.0
 40
2.0
 40
3.0
 40
3.0
 40
3.0
 40
3.0
 10
886.2845523387605
 20
-431.6217970112939
 10
886.5839638286488
 20
-431.6217970112939
 10
886.8831625171933
 20
-431.6300962620917
 10
887.1823612057378
 20
-431.6469075649884
 10
886.9995648519252
 20
-431.6300962620917
 10
886.8165556967706
 20
-431.6217970112939
 10
886.633759342958
 20
-431.6217970112939
 10
886.633759342958
 20
-431.6217970112939
 10
886.2845523387605
 20
-431.6217970112939
 10
886.2845523387605
 20
-431.6217970112939
 97
        0
 97
        0
 92
        1
 93
        1
 72
     4
 94
        3
 73
     0
 74
     1
 95
       62
 96
       58
 40
0.0
 40
0.0
 40
0.0
 40
0.0
 40
1.0
 40
1.0
 40
1.0
 40
2.0
 40
2.0
 40
2.0
 40
3.0
 40
3.0
 40
3.0
 40
4.0
 40
4.0
 40
4.0
 40
5.0
 40
5.0
 40
5.0
 40
6.0
 40
6.0
 40
6.0
 40
7.0
 40
7.0
 40
7.0
 40
8.0
 40
8.0
 40
8.0
 40
9.0
 40
9.0
 40
9.0
 40
10.0
 40
10.0
 40
10.0
 40
11.0
 40
11.0
 40
11.0
 40
12.0
 40
12.0
 40
12.0
 40
13.0
 40
13.0
 40
13.0
 40
14.0
 40
14.0
 40
14.0
 40
15.0
 40
15.0
 40
15.0
 40
16.0
 40
16.0
 40
16.0
 40
17.0
 40
17.0
 40
17.0
 40
18.0
 40
18.0
 40
18.0
 40
19.0
 40
19.0
 40
19.0
 40
19.0
 10
885.8191558011731
 20
-527.174661787556
 10
885.8191558011731
 20
-527.174661787556
 10
839.1005603040267
 20
-527.174661787556
 10
839.1005603040267
 20
-527.174661787556
 10
839.1005603040267
 20
-527.174661787556
 10
833.0988998304238
 20
-552.1954406022178
 10
833.0988998304238
 20
-552.1954406022178
 10
832.0182946096338
 20
-557.0498373982118
 10
829.6740750128974
 20
-557.9310741081117
 10
824.852847781267
 20
-557.9310741081117
 10
824.852847781267
 20
-557.9310741081117
 10
804.5120185897631
 20
-557.9310741081117
 10
804.5120185897631
 20
-557.9310741081117
 10
800.9209959231939
 20
-557.9310741081117
 10
798.4603739917256
 20
-556.4846636551174
 10
799.5409792125156
 20
-551.6302403428163
 10
799.5409792125156
 20
-551.6302403428163
 10
828.3606651226419
 20
-438.2054437075931
 10
828.3606651226419
 20
-438.2054437075931
 10
829.5576726781655
 20
-433.3842173984776
 10
833.7805265895295
 20
-431.6217970112939
 10
838.618328269109
 20
-431.6217970112939
 10
838.618328269109
 20
-431.6217970112939
 10
842.292580532725
 20
-431.6217970112939
 10
842.292580532725
 20
-431.6217970112939
 10
842.292580532725
 20
-431.6217970112939
 10
860.0480619337868
 20
-431.6217970112939
 10
860.0480619337868
 20
-431.6217970112939
 10
860.0480619337868
 20
-431.6217970112939
 10
864.8526906606494
 20
-431.6217970112939
 10
864.8526906606494
 20
-431.6217970112939
 10
864.8526906606494
 20
-431.6217970112939
 10
886.2845523387605
 20
-431.6217970112939
 10
886.2845523387605
 20
-431.6217970112939
 10
886.2845523387605
 20
-431.6217970112939
 10
886.633759342958
 20
-431.6217970112939
 10
886.633759342958
 20
-431.6217970112939
 10
886.8165556967706
 20
-431.6217970112939
 10
886.9995648519252
 20
-431.6300962620917
 10
887.1823612057378
 20
-431.6469075649884
 10
891.637995729745
 20
-431.8545719572094
 10
895.4284132548964
 20
-433.6834160297749
 10
896.5590524340805
 20
-438.2054437075931
 10
896.5590524340805
 20
-438.2054437075931
 10
925.3702270183057
 20
-551.6302403428163
 10
925.3702270183057
 20
-551.6302403428163
 10
926.4508058685278
 20
-556.4846636551174
 10
924.0069952431732
 20
-557.9310741081117
 10
920.3993740718342
 20
-557.9310741081117
 10
920.3993740718342
 20
-557.9310741081117
 10
900.0668441327143
 20
-557.9310741081117
 10
900.0668441327143
 20
-557.9310741081117
 10
895.2290440054567
 20
-557.9310741081117
 10
892.9013973043475
 20
-557.0498373982118
 10
891.8041935787878
 20
-552.1954406022178
 10
891.8041935787878
 20
-552.1954406022178
 10
885.8191558011731
 20
-527.174661787556
 10
885.8191558011731
 20
-527.174661787556
 97
        0
 97
        0
 92
        1
 93
        1
 72
     4
 94
        3
 73
     0
 74
     1
 95
       17
 96
       13
 40
0.0
 40
0.0
 40
0.0
 40
0.0
 40
1.0
 40
1.0
 40
1.0
 40
2.0
 40
2.0
 40
2.0
 40
3.0
 40
3.0
 40
3.0
 40
4.0
 40
4.0
 40
4.0
 40
4.0
 10
846.7479779835339
 20
-497.0833080792981
 10
846.7479779835339
 20
-497.0833080792981
 10
878.1549026243356
 20
-497.0833080792981
 10
878.1549026243356
 20
-497.0833080792981
 10
878.1549026243356
 20
-497.0833080792981
 10
869.1919228499228
 20
-463.3176998113086
 10
869.1919228499228
 20
-463.3176998113086
 10
866.0997065318243
 20
-459.0865715139889
 10
858.801258863954
 20
-459.0865715139889
 10
855.7090425458573
 20
-463.3176998113086
 10
855.7090425458573
 20
-463.3176998113086
 10
846.7479779835339
 20
-497.0833080792981
 10
846.7479779835339
 20
-497.0833080792981
 97
        0
 97
        0
 75
     2
 76
     1
 98
        0
  0
SPLINE
  5
69
330
1F
100
AcDbEntity
  8
logo
370
     0
100
AcDbSpline
210
0.0
220
0.0
230
1.0
 70
    11
 71
     3
 72
    29
 73
    25
 74
     0
 42
0.0000000001
 43
0.0000000001
 12
1.0
 22
0.0
 32
0.0
 13
1.0
 23
0.0
 33
0.0
 40
0.0
 40
0.0
 40
0.0
 40
0.0
 40
1.0
 40
1.0
 40
1.0
 40
2.0
 40
2.0
 40
2.0
 40
3.0
 40
3.0
 40
3.0
 40
4.0
 40
4.0
 40
4.0
 40
5.0
 40
5.0
 40
5.0
 40
6.0
 40
6.0
 40
6.0
 40
7.0
 40
7.0
 40
7.0
 40
8.0
 40
8.0
 40
8.0
 40
8.0
 10
591.9266687490472
 20
-440.3915514880273
 30
0.0
 10
591.9266687490472
 20
-435.545427426523
 30
0.0
 10
595.8460438881793
 20
-431.6217970112939
 30
0.0
 10
600.6881256514444
 20
-431.6217970112939
 30
0.0
 10
600.6881256514444
 20
-431.6217970112939
 30
0.0
 10
619.0422415027952
 20
-431.6217970112939
 30
0.0
 10
619.0422415027952
 20
-431.6217970112939
 30
0.0
 10
623.884323266062
 20
-431.6217970112939
 30
0.0
 10
627.8079732855731
 20
-435.545427426523
 30
0.0
 10
627.8079732855731
 20
-440.3915514880273
 30
0.0
 10
627.8079732855731
 20
-440.3915514880273
 30
0.0
 10
627.8079732855731
 20
-548.6876239320463
 30
0.0
 10
627.8079732855731
 20
-548.6876239320463
 30
0.0
 10
627.8079732855731
 20
-553.5254487427519
 30
0.0
 10
623.884323266062
 20
-557.448866356679
 30
0.0
 10
619.0422415027952
 20
-557.448866356679
 30
0.0
 10
619.0422415027952
 20
-557.448866356679
 30
0.0
 10
600.6881256514444
 20
-557.448866356679
 30
0.0
 10
600.6881256514444
 20
-557.448866356679
 30
0.0
 10
595.8460438881793
 20
-557.448866356679
 30
0.0
 10
591.9266687490472
 20
-553.5254487427519
 30
0.0
 10
591.9266687490472
 20
-548.6876239320463
 30
0.0
 10
591.9266687490472
 20
-548.6876239320463
 30
0.0
 10
591.9266687490472
 20
-440.3915514880273
 30
0.0
 10
591.9266687490472
 20
-440.3915514880273
 30
0.0
  0
HATCH
  5
6A
330
1F
100
AcDbEntity
  8
logo
 62
     7
420
 16776959
100
AcDbHatch
 10
0.0
 20
0.0
 30
0.0
210
0.0
220
0.0
230
1.0
  2
SOLID
 70
     1
 71
     0
 91
        1
 92
        1
 93
        1
 72
     4
 94
        3
 73
     0
 74
     1
 95
       29
 96
       25
 40
0.0
 40
0.0
 40
0.0
 40
0.0
 40
1.0
 40
1.0
 40
1.0
 40
2.0
 40
2.0
 40
2.0
 40
3.0
 40
3.0
 40
3.0
 40
4.0
 40
4.0
 40
4.0
 40
5.0
 40
5.0
 40
5.0
 40
6.0
 40
6.0
 40
6.0
 40
7.0
 40
7.0
 40
7.0
 40
8.0
 40
8.0
 40
8.0
 40
8.0
 10
591.9266687490472
 20
-440.3915514880273
 10
591.9266687490472
 20
-435.545427426523
 10
595.8460438881793
 20
-431.6217970112939
 10
600.6881256514444
 20
-431.6217970112939
 10
600.6881256514444
 20
-431.6217970112939
 10
619.0422415027952
 20
-431.6217970112939
 10
619.0422415027952
 20
-431.6217970112939
 10
623.884323266062
 20
-431.6217970112939
 10
627.8079732855731
 20
-435.545427426523
 10
627.8079732855731
 20
-440.3915514880273
 10
627.8079732855731
 20
-440.3915514880273
 10
627.8079732855731
 20
-548.6876239320463
 10
627.8079732855731
 20
-548.6876239320463
 10
627.8079732855731
 20
-553.5254487427519
 10
623.884323266062
 20
-557.448866356679
 10
619.0422415027952
 20
-557.448866356679
 10
619.0422415027952
 20
-557.448866356679
 10
600.6881256514444
 20
-557.448866356679
 10
600.6881256514444
 20
-557.448866356679
 10
595.8460438881793
 20
-557.448866356679
 10
591.9266687490472
 20
-553.5254487427519
 10
591.9266687490472
 20
-548.6876239320463
 10
591.9266687490472
 20
-548.6876239320463
 10
591.9266687490472
 20
-440.3915514880273
 10
591.9266687490472
 20
-440.3915514880273
 97
        0
 97
        0
 75
     0
 76
     1
 98
        0
  0
SPLINE
  5
6B
330
1F
100
AcDbEntity
  8
logo
370
     0
100
AcDbSpline
210
0.0
220
0.0
230
1.0
 70
    11
 71
     3
 72
    77
 73
    73
 74
     0
 42
0.0000000001
 43
0.0000000001
 12
1.0
 22
0.0
 32
0.0
 13
1.0
 23
0.0
 33
0.0
 40
0.0
 40
0.0
 40
0.0
 40
0.0
 40
1.0
 40
1.0
 40
1.0
 40
2.0
 40
2.0
 40
2.0
 40
3.0
 40
3.0
 40
3.0
 40
4.0
 40
4.0
 40
4.0
 40
5.0
 40
5.0
 40
5.0
 40
6.0
 40
6.0
 40
6.0
 40
7.0
 40
7.0
 40
7.0
 40
8.0
 40
8.0
 40
8.0
 40
9.0
 40
9.0
 40
9.0
 40
10.0
 40
10.0
 40
10.0
 40
11.0
 40
11.0
 40
11.0
 40
12.0
 40
12.0
 40
12.0
 40
13.0
 40
13.0
 40
13.0
 40
14.0
 40
14.0
 40
14.0
 40
15.0
 40
15.0
 40
15.0
 40
16.0
 40
16.0
 40
16.0
 40
17.0
 40
17.0
 40
17.0
 40
18.0
 40
18.0
 40
18.0
 40
19.0
 40
19.0
 40
19.0
 40
20.0
 40
20.0
 40
20.0
 40
21.0
 40
21.0
 40
21.0
 40
22.0
 40
22.0
 40
22.0
 40
23.0
 40
23.0
 40
23.0
 40
24.0
 40
24.0
 40
24.0
 40
24.0
 10
365.1395956669194
 20
-557.0166669113314
 30
0.0
 10
361.0206128678619
 20
-557.0166669113314
 30
0.0
 10
357.683249402392
 20
-553.6750480583996
 30
0.0
 10
357.683249402392
 20
-549.5603220735393
 30
0.0
 10
357.683249402392
 20
-549.5603220735393
 30
0.0
 10
357.683249402392
 20
-535.0217370877253
 30
0.0
 10
357.683249402392
 20
-535.0217370877253
 30
0.0
 10
357.683249402392
 20
-530.8986846751286
 30
0.0
 10
361.0206128678619
 20
-527.573691500731
 30
0.0
 10
365.1395956669194
 20
-527.573691500731
 30
0.0
 10
365.1395956669194
 20
-527.573691500731
 30
0.0
 10
429.8403544587136
 20
-527.573691500731
 30
0.0
 10
429.8403544587136
 20
-527.573691500731
 30
0.0
 10
433.6141734790945
 20
-527.573691500731
 30
0.0
 10
434.9524951080839
 20
-525.6784831007935
 30
0.0
 10
434.9524951080839
 20
-521.7216556823769
 30
0.0
 10
434.9524951080839
 20
-521.7216556823769
 30
0.0
 10
434.9524951080839
 20
-513.0016967104275
 30
0.0
 10
434.9524951080839
 20
-513.0016967104275
 30
0.0
 10
434.9524951080839
 20
-509.5353762942395
 30
0.0
 10
433.5892757219399
 20
-507.8895710208162
 30
0.0
 10
429.8403544587136
 20
-507.8895710208162
 30
0.0
 10
429.8403544587136
 20
-507.8895710208162
 30
0.0
 10
380.8585924853724
 20
-507.9810755808849
 30
0.0
 10
380.8585924853724
 20
-507.9810755808849
 30
0.0
 10
366.1535940672866
 20
-507.9810755808849
 30
0.0
 10
358.3937930873508
 20
-496.4763987646093
 30
0.0
 10
358.3937930873508
 20
-487.3408388489042
 30
0.0
 10
358.3937930873508
 20
-487.3408388489042
 30
0.0
 10
358.3937930873508
 20
-451.6468251777924
 30
0.0
 10
358.3937930873508
 20
-451.6468251777924
 30
0.0
 10
358.3937930873508
 20
-442.9685752611267
 30
0.0
 10
366.2036023829396
 20
-431.6217970112939
 30
0.0
 10
380.9043447741633
 20
-431.6217970112939
 30
0.0
 10
380.9043447741633
 20
-431.6217970112939
 30
0.0
 10
462.4919541559184
 20
-431.6217970112939
 30
0.0
 10
462.4919541559184
 20
-431.6217970112939
 30
0.0
 10
466.6066957093408
 20
-431.6217970112939
 30
0.0
 10
469.9400011680591
 20
-434.9550870127487
 30
0.0
 10
469.9400011680591
 20
-439.078141849086
 30
0.0
 10
469.9400011680591
 20
-439.078141849086
 30
0.0
 10
469.9400011680591
 20
-453.616939636202
 30
0.0
 10
469.9400011680591
 20
-453.616939636202
 30
0.0
 10
469.9400011680591
 20
-457.7316656210633
 30
0.0
 10
466.6066957093408
 20
-461.0732844739941
 30
0.0
 10
462.4919541559184
 20
-461.0732844739941
 30
0.0
 10
462.4919541559184
 20
-461.0732844739941
 30
0.0
 10
397.055541120666
 20
-461.0732844739941
 30
0.0
 10
397.055541120666
 20
-461.0732844739941
 30
0.0
 10
393.2774790022004
 20
-461.0732844739941
 30
0.0
 10
391.9434144528741
 20
-462.9601936231338
 30
0.0
 10
391.9434144528741
 20
-466.9087217907509
 30
0.0
 10
391.9434144528741
 20
-466.9087217907509
 30
0.0
 10
391.9434144528741
 20
-475.6367672121987
 30
0.0
 10
391.9434144528741
 20
-475.6367672121987
 30
0.0
 10
391.9434144528741
 20
-479.1030876283858
 30
0.0
 10
393.3023638305758
 20
-480.7491057031111
 30
0.0
 10
397.055541120666
 20
-480.7491057031111
 30
0.0
 10
397.055541120666
 20
-480.7491057031111
 30
0.0
 10
448.2317105451257
 20
-480.6576011430434
 30
0.0
 10
448.2317105451257
 20
-480.6576011430434
 30
0.0
 10
462.9324529363494
 20
-480.6576011430434
 30
0.0
 10
470.6965099431491
 20
-492.1622779593199
 30
0.0
 10
470.6965099431491
 20
-501.2893258229251
 30
0.0
 10
470.6965099431491
 20
-501.2893258229251
 30
0.0
 10
470.6965099431491
 20
-537.0001507969337
 30
0.0
 10
470.6965099431491
 20
-537.0001507969337
 30
0.0
 10
470.6965099431491
 20
-545.6701014628015
 30
0.0
 10
462.8909566744242
 20
-557.0166669113314
 30
0.0
 10
448.1861710576795
 20
-557.0166669113314
 30
0.0
 10
448.1861710576795
 20
-557.0166669113314
 30
0.0
 10
365.1395956669194
 20
-557.0166669113314
 30
0.0
 10
365.1395956669194
 20
-557.0166669113314
 30
0.0
  0
HATCH
  5
6C
330
1F
100
AcDbEntity
  8
logo
 62
     7
420
 16776959
100
AcDbHatch
 10
0.0
 20
0.0
 30
0.0
210
0.0
220
0.0
230
1.0
  2
SOLID
 70
     1
 71
     0
 91
        1
 92
        1
 93
        1
 72
     4
 94
        3
 73
     0
 74
     1
 95
       77
 96
       73
 40
0.0
 40
0.0
 40
0.0
 40
0.0
 40
1.0
 40
1.0
 40
1.0
 40
2.0
 40
2.0
 40
2.0
 40
3.0
 40
3.0
 40
3.0
 40
4.0
 40
4.0
 40
4.0
 40
5.0
 40
5.0
 40
5.0
 40
6.0
 40
6.0
 40
6.0
 40
7.0
 40
7.0
 40
7.0
 40
8.0
 40
8.0
 40
8.0
 40
9.0
 40
9.0
 40
9.0
 40
10.0
 40
10.0
 40
10.0
 40
11.0
 40
11.0
 40
11.0
 40
12.0
 40
12.0
 40
12.0
 40
13.0
 40
13.0
 40
13.0
 40
14.0
 40
14.0
 40
14.0
 40
15.0
 40
15.0
 40
15.0
 40
16.0
 40
16.0
 40
16.0
 40
17.0
 40
17.0
 40
17.0
 40
18.0
 40
18.0
 40
18.0
 40
19.0
 40
19.0
 40
19.0
 40
20.0
 40
20.0
 40
20.0
 40
21.0
 40
21.0
 40
21.0
 40
22.0
 40
22.0
 40
22.0
 40
23.0
 40
23.0
 40
23.0
 40
24.0
 40
24.0
 40
24.0
 40
24.0
 10
365.1395956669194
 20
-557.0166669113314
 10
361.0206128678619
 20
-557.0166669113314
 10
357.683249402392
 20
-553.6750480583996
 10
357.683249402392
 20
-549.5603220735393
 10
357.683249402392
 20
-549.5603220735393
 10
357.683249402392
 20
-535.0217370877253
 10
357.683249402392
 20
-535.0217370877253
 10
357.683249402392
 20
-530.8986846751286
 10
361.0206128678619
 20
-527.573691500731
 10
365.1395956669194
 20
-527.573691500731
 10
365.1395956669194
 20
-527.573691500731
 10
429.8403544587136
 20
-527.573691500731
 10
429.8403544587136
 20
-527.573691500731
 10
433.6141734790945
 20
-527.573691500731
 10
434.9524951080839
 20
-525.6784831007935
 10
434.9524951080839
 20
-521.7216556823769
 10
434.9524951080839
 20
-521.7216556823769
 10
434.9524951080839
 20
-513.0016967104275
 10
434.9524951080839
 20
-513.0016967104275
 10
434.9524951080839
 20
-509.5353762942395
 10
433.5892757219399
 20
-507.8895710208162
 10
429.8403544587136
 20
-507.8895710208162
 10
429.8403544587136
 20
-507.8895710208162
 10
380.8585924853724
 20
-507.9810755808849
 10
380.8585924853724
 20
-507.9810755808849
 10
366.1535940672866
 20
-507.9810755808849
 10
358.3937930873508
 20
-496.4763987646093
 10
358.3937930873508
 20
-487.3408388489042
 10
358.3937930873508
 20
-487.3408388489042
 10
358.3937930873508
 20
-451.6468251777924
 10
358.3937930873508
 20
-451.6468251777924
 10
358.3937930873508
 20
-442.9685752611267
 10
366.2036023829396
 20
-431.6217970112939
 10
380.9043447741633
 20
-431.6217970112939
 10
380.9043447741633
 20
-431.6217970112939
 10
462.4919541559184
 20
-431.6217970112939
 10
462.4919541559184
 20
-431.6217970112939
 10
466.6066957093408
 20
-431.6217970112939
 10
469.9400011680591
 20
-434.9550870127487
 10
469.9400011680591
 20
-439.078141849086
 10
469.9400011680591
 20
-439.078141849086
 10
469.9400011680591
 20
-453.616939636202
 10
469.9400011680591
 20
-453.616939636202
 10
469.9400011680591
 20
-457.7316656210633
 10
466.6066957093408
 20
-461.0732844739941
 10
462.4919541559184
 20
-461.0732844739941
 10
462.4919541559184
 20
-461.0732844739941
 10
397.055541120666
 20
-461.0732844739941
 10
397.055541120666
 20
-461.0732844739941
 10
393.2774790022004
 20
-461.0732844739941
 10
391.9434144528741
 20
-462.9601936231338
 10
391.9434144528741
 20
-466.9087217907509
 10
391.9434144528741
 20
-466.9087217907509
 10
391.9434144528741
 20
-475.6367672121987
 10
391.9434144528741
 20
-475.6367672121987
 10
391.9434144528741
 20
-479.1030876283858
 10
393.3023638305758
 20
-480.7491057031111
 10
397.055541120666
 20
-480.7491057031111
 10
397.055541120666
 20
-480.7491057031111
 10
448.2317105451257
 20
-480.6576011430434
 10
448.2317105451257
 20
-480.6576011430434
 10
462.9324529363494
 20
-480.6576011430434
 10
470.6965099431491
 20
-492.1622779593199
 10
470.6965099431491
 20
-501.2893258229251
 10
470.6965099431491
 20
-501.2893258229251
 10
470.6965099431491
 20
-537.0001507969337
 10
470.6965099431491
 20
-537.0001507969337
 10
470.6965099431491
 20
-545.6701014628015
 10
462.8909566744242
 20
-557.0166669113314
 10
448.1861710576795
 20
-557.0166669113314
 10
448.1861710576795
 20
-557.0166669113314
 10
365.1395956669194
 20
-557.0166669113314
 10
365.1395956669194
 20
-557.0166669113314
 97
        0
 97
        0
 75
     2
 76
     1
 98
        0
  0
SPLINE
  5
6D
330
1F
100
AcDbEntity
  8
logo
370
     0
100
AcDbSpline
210
0.0
220
0.0
230
1.0
 70
    11
 71
     3
 72
    47
 73
    43
 74
     0
 42
0.0000000001
 43
0.0000000001
 12
1.0
 22
0.0
 32
0.0
 13
1.0
 23
0.0
 33
0.0
 40
0.0
 40
0.0
 40
0.0
 40
0.0
 40
1.0
 40
1.0
 40
1.0
 40
2.0
 40
2.0
 40
2.0
 40
3.0
 40
3.0
 40
3.0
 40
4.0
 40
4.0
 40
4.0
 40
5.0
 40
5.0
 40
5.0
 40
6.0
 40
6.0
 40
6.0
 40
7.0
 40
7.0
 40
7.0
 40
8.0
 40
8.0
 40
8.0
 40
9.0
 40
9.0
 40
9.0
 40
10.0
 40
10.0
 40
10.0
 40
11.0
 40
11.0
 40
11.0
 40
12.0
 40
12.0
 40
12.0
 40
13.0
 40
13.0
 40
13.0
 40
14.0
 40
14.0
 40
14.0
 40
14.0
 10
547.986596198898
 20
-461.5220824209364
 30
0.0
 10
547.986596198898
 20
-461.5220824209364
 30
0.0
 10
547.986596198898
 20
-548.3550154962613
 30
0.0
 10
547.986596198898
 20
-548.3550154962613
 30
0.0
 10
547.986596198898
 20
-553.2594471146458
 30
0.0
 10
544.0714770866307
 20
-557.2328465229748
 30
0.0
 10
539.2417378012706
 20
-557.2328465229748
 30
0.0
 10
539.2417378012706
 20
-557.2328465229748
 30
0.0
 10
521.5402836695266
 20
-557.2328465229748
 30
0.0
 10
521.5402836695266
 20
-557.2328465229748
 30
0.0
 10
516.7105443841665
 20
-557.2328465229748
 30
0.0
 10
512.799484445577
 20
-553.2594471146458
 30
0.0
 10
512.799484445577
 20
-548.3550154962613
 30
0.0
 10
512.799484445577
 20
-548.3550154962613
 30
0.0
 10
512.799484445577
 20
-461.5220824209364
 30
0.0
 10
512.799484445577
 20
-461.5220824209364
 30
0.0
 10
512.799484445577
 20
-461.5220824209364
 30
0.0
 10
486.7521584865526
 20
-461.5220824209364
 30
0.0
 10
486.7521584865526
 20
-461.5220824209364
 30
0.0
 10
482.6499869936079
 20
-461.5220824209364
 30
0.0
 10
479.3207099791807
 20
-458.1472665648171
 30
0.0
 10
479.3207099791807
 20
-453.9910443259723
 30
0.0
 10
479.3207099791807
 20
-453.9910443259723
 30
0.0
 10
479.3207099791807
 20
-439.1613471583578
 30
0.0
 10
479.3207099791807
 20
-439.1613471583578
 30
0.0
 10
479.3207099791807
 20
-434.9968256687152
 30
0.0
 10
482.6499869936079
 20
-431.6217970112939
 30
0.0
 10
486.7521584865526
 20
-431.6217970112939
 30
0.0
 10
486.7521584865526
 20
-431.6217970112939
 30
0.0
 10
573.801314341641
 20
-431.6217970112939
 30
0.0
 10
573.801314341641
 20
-431.6217970112939
 30
0.0
 10
577.9034858345858
 20
-431.6217970112939
 30
0.0
 10
581.2325500476691
 20
-434.9968256687152
 30
0.0
 10
581.2325500476691
 20
-439.1613471583578
 30
0.0
 10
581.2325500476691
 20
-439.1613471583578
 30
0.0
 10
581.2325500476691
 20
-453.9910443259723
 30
0.0
 10
581.2325500476691
 20
-453.9910443259723
 30
0.0
 10
581.2325500476691
 20
-458.1472665648171
 30
0.0
 10
577.9034858345858
 20
-461.5220824209364
 30
0.0
 10
573.801314341641
 20
-461.5220824209364
 30
0.0
 10
573.801314341641
 20
-461.5220824209364
 30
0.0
 10
547.986596198898
 20
-461.5220824209364
 30
0.0
 10
547.986596198898
 20
-461.5220824209364
 30
0.0
  0
HATCH
  5
6E
330
1F
100
AcDbEntity
  8
logo
 62
     7
420
 16776959
100
AcDbHatch
 10
0.0
 20
0.0
 30
0.0
210
0.0
220
0.0
230
1.0
  2
SOLID
 70
     1
 71
     0
 91
        1
 92
        1
 93
        1
 72
     4
 94
        3
 73
     0
 74
     1
 95
       47
 96
       43
 40
0.0
 40
0.0
 40
0.0
 40
0.0
 40
1.0
 40
1.0
 40
1.0
 40
2.0
 40
2.0
 40
2.0
 40
3.0
 40
3.0
 40
3.0
 40
4.0
 40
4.0
 40
4.0
 40
5.0
 40
5.0
 40
5.0
 40
6.0
 40
6.0
 40
6.0
 40
7.0
 40
7.0
 40
7.0
 40
8.0
 40
8.0
 40
8.0
 40
9.0
 40
9.0
 40
9.0
 40
10.0
 40
10.0
 40
10.0
 40
11.0
 40
11.0
 40
11.0
 40
12.0
 40
12.0
 40
12.0
 40
13.0
 40
13.0
 40
13.0
 40
14.0
 40
14.0
 40
14.0
 40
14.0
 10
547.986596198898
 20
-461.5220824209364
 10
547.986596198898
 20
-461.5220824209364
 10
547.986596198898
 20
-548.3550154962613
 10
547.986596198898
 20
-548.3550154962613
 10
547.986596198898
 20
-553.2594471146458
 10
544.0714770866307
 20
-557.2328465229748
 10
539.2417378012706
 20
-557.2328465229748
 10
539.2417378012706
 20
-557.2328465229748
 10
521.5402836695266
 20
-557.2328465229748
 10
521.5402836695266
 20
-557.2328465229748
 10
516.7105443841665
 20
-557.2328465229748
 10
512.799484445577
 20
-553.2594471146458
 10
512.799484445577
 20
-548.3550154962613
 10
512.799484445577
 20
-548.3550154962613
 10
512.799484445577
 20
-461.5220824209364
 10
512.799484445577
 20
-461.5220824209364
 10
512.799484445577
 20
-461.5220824209364
 10
486.7521584865526
 20
-461.5220824209364
 10
486.7521584865526
 20
-461.5220824209364
 10
482.6499869936079
 20
-461.5220824209364
 10
479.3207099791807
 20
-458.1472665648171
 10
479.3207099791807
 20
-453.9910443259723
 10
479.3207099791807
 20
-453.9910443259723
 10
479.3207099791807
 20
-439.1613471583578
 10
479.3207099791807
 20
-439.1613471583578
 10
479.3207099791807
 20
-434.9968256687152
 10
482.6499869936079
 20
-431.6217970112939
 10
486.7521584865526
 20
-431.6217970112939
 10
486.7521584865526
 20
-431.6217970112939
 10
573.801314341641
 20
-431.6217970112939
 10
573.801314341641
 20
-431.6217970112939
 10
577.9034858345858
 20
-431.6217970112939
 10
581.2325500476691
 20
-434.9968256687152
 10
581.2325500476691
 20
-439.1613471583578
 10
581.2325500476691
 20
-439.1613471583578
 10
581.2325500476691
 20
-453.9910443259723
 10
581.2325500476691
 20
-453.9910443259723
 10
581.2325500476691
 20
-458.1472665648171
 10
577.9034858345858
 20
-461.5220824209364
 10
573.801314341641
 20
-461.5220824209364
 10
573.801314341641
 20
-461.5220824209364
 10
547.986596198898
 20
-461.5220824209364
 10
547.986596198898
 20
-461.5220824209364
 97
        0
 97
        0
 75
     2
 76
     1
 98
        0
  0
ENDSEC
  0
SECTION
  2
OBJECTS
  0
DICTIONARY
  5
C
330
0
100
AcDbDictionary
281
     1
  3
ACAD_GROUP
350
D
  3
ACAD_LAYOUT
350
1A
  3
ACAD_MATERIAL
350
3B
  3
ACAD_MLEADERSTYLE
350
70
  3
ACAD_MLINESTYLE
350
17
  3
ACAD_PLOTSETTINGS
350
19
  3
ACAD_PLOTSTYLENAME
350
E
  3
ACAD_TABLESTYLE
350
6F
  3
ACAD_VISUALSTYLE
350
2A
  0
SUN
  5
3F
330
29
100
AcDbSun
 90
        1
290
     0
 63
     7
421
 16777215
 40
1.0
291
     1
 91
  2455826
 92
 54000000
292
     0
 70
     2
 71
   256
280
     1
  0
DICTIONARY
  5
D
102
{ACAD_REACTORS
330
C
102
}
330
C
100
AcDbDictionary
281
     1
  0
DICTIONARY
  5
1A
102
{ACAD_REACTORS
330
C
102
}
330
C
100
AcDbDictionary
281
     1
  3
Layout1
350
1E
  3
Layout2
350
26
  3
Model
350
22
  0
DICTIONARY
  5
3B
102
{ACAD_REACTORS
330
C
102
}
330
C
100
AcDbDictionary
281
     1
  3
ByBlock
350
3D
  3
ByLayer
350
3C
  3
Global
350
3E
  0
DICTIONARY
  5
70
102
{ACAD_REACTORS
330
C
102
}
330
C
100
AcDbDictionary
281
     1
  0
DICTIONARY
  5
17
102
{ACAD_REACTORS
330
C
102
}
330
C
100
AcDbDictionary
281
     1
  3
Standard
350
18
  0
DICTIONARY
  5
19
102
{ACAD_REACTORS
330
C
102
}
330
C
100
AcDbDictionary
281
     1
  0
ACDBDICTIONARYWDFLT
  5
E
102
{ACAD_REACTORS
330
C
102
}
330
C
100
AcDbDictionary
281
     1
  3
Normal
350
F
100
AcDbDictionaryWithDefault
340
F
  0
DICTIONARY
  5
6F
102
{ACAD_REACTORS
330
C
102
}
330
C
100
AcDbDictionary
281
     1
  0
DICTIONARY
  5
2A
102
{ACAD_REACTORS
330
C
102
}
330
C
100
AcDbDictionary
281
     1
  3
2dWireframe
350
2F
  3
3D Hidden
350
31
  3
3dWireframe
350
30
  3
Basic
350
32
  3
Brighten
350
36
  3
ColorChange
350
3A
  3
Conceptual
350
34
  3
Dim
350
35
  3
Facepattern
350
39
  3
Flat
350
2B
  3
FlatWithEdges
350
2C
  3
Gouraud
350
2D
  3
GouraudWithEdges
350
2E
  3
Linepattern
350
38
  3
Realistic
350
33
  3
Thicken
350
37
  0
LAYOUT
  5
1E
102
{ACAD_REACTORS
330
1A
102
}
330
1A
100
AcDbPlotSettings
  1

  2
none_device
  4

  6

 40
0.0
 41
0.0
 42
0.0
 43
0.0
 44
0.0
 45
0.0
 46
0.0
 47
0.0
 48
0.0
 49
0.0
140
0.0
141
0.0
142
1.0
143
1.0
 70
   688
 72
     0
 73
     0
 74
     5
  7

 75
    16
 76
     0
 77
     2
 78
   300
147
1.0
148
0.0
149
0.0
100
AcDbLayout
  1
Layout1
 70
     1
 71
     1
 10
0.0
 20
0.0
 11
12.0
 21
9.0
 12
0.0
 22
0.0
 32
0.0
 14
1.000000000000000E+20
 24
1.000000000000000E+20
 34
1.000000000000000E+20
 15
-1.000000000000000E+20
 25
-1.000000000000000E+20
 35
-1.000000000000000E+20
146
0.0
 13
0.0
 23
0.0
 33
0.0
 16
1.0
 26
0.0
 36
0.0
 17
0.0
 27
1.0
 37
0.0
 76
     0
330
1B
  0
LAYOUT
  5
26
102
{ACAD_REACTORS
330
1A
102
}
330
1A
100
AcDbPlotSettings
  1

  2
none_device
  4

  6

 40
0.0
 41
0.0
 42
0.0
 43
0.0
 44
0.0
 45
0.0
 46
0.0
 47
0.0
 48
0.0
 49
0.0
140
0.0
141
0.0
142
1.0
143
1.0
 70
   688
 72
     0
 73
     0
 74
     5
  7

 75
    16
 76
     0
 77
     2
 78
   300
147
1.0
148
0.0
149
0.0
100
AcDbLayout
  1
Layout2
 70
     1
 71
     2
 10
0.0
 20
0.0
 11
0.0
 21
0.0
 12
0.0
 22
0.0
 32
0.0
 14
0.0
 24
0.0
 34
0.0
 15
0.0
 25
0.0
 35
0.0
146
0.0
 13
0.0
 23
0.0
 33
0.0
 16
1.0
 26
0.0
 36
0.0
 17
0.0
 27
1.0
 37
0.0
 76
     0
330
23
  0
LAYOUT
  5
22
102
{ACAD_REACTORS
330
1A
102
}
330
1A
100
AcDbPlotSettings
  1

  2
none_device
  4

  6

 40
0.0
 41
0.0
 42
0.0
 43
0.0
 44
0.0
 45
0.0
 46
0.0
 47
0.0
 48
0.0
 49
0.0
140
0.0
141
0.0
142
1.0
143
1.0
 70
  1712
 72
     0
 73
     0
 74
     0
  7

 75
     0
 76
     0
 77
     2
 78
   300
147
1.0
148
0.0
149
0.0
100
AcDbLayout
  1
Model
 70
     1
 71
     0
 10
0.0
 20
0.0
 11
12.0
 21
9.0
 12
0.0
 22
0.0
 32
0.0
 14
1.000000000000000E+20
 24
1.000000000000000E+20
 34
1.000000000000000E+20
 15
-1.000000000000000E+20
 25
-1.000000000000000E+20
 35
-1.000000000000000E+20
146
0.0
 13
0.0
 23
0.0
 33
0.0
 16
1.0
 26
0.0
 36
0.0
 17
0.0
 27
1.0
 37
0.0
 76
     0
330
1F
331
29
  0
MATERIAL
  5
3D
102
{ACAD_REACTORS
330
3B
102
}
330
3B
100
AcDbMaterial
  1
ByBlock
 72
     1
 94
      127
  0
MATERIAL
  5
3C
102
{ACAD_REACTORS
330
3B
102
}
330
3B
100
AcDbMaterial
  1
ByLayer
 72
     1
 94
      127
  0
MATERIAL
  5
3E
102
{ACAD_REACTORS
330
3B
102
}
330
3B
100
AcDbMaterial
  1
Global
 72
     1
 94
      127
  0
MLINESTYLE
  5
18
102
{ACAD_REACTORS
330
17
102
}
330
17
100
AcDbMlineStyle
  2
Standard
 70
     0
  3

 62
   256
 51
90.0
 52
90.0
 71
     2
 49
0.5
 62
   256
  6
BYLAYER
 49
-0.5
 62
   256
  6
BYLAYER
  0
ACDBPLACEHOLDER
  5
F
102
{ACAD_REACTORS
330
E
102
}
330
E
  0
VISUALSTYLE
  5
2F
102
{ACAD_REACTORS
330
2A
102
}
330
2A
100
AcDbVisualStyle
  2
2dWireframe
 70
     4
177
     2
291
     0
 71
     0
176
     1
 72
     2
176
     1
 73
     0
176
     1
 90
        0
176
     1
 40
-0.6
176
     1
 41
-30.0
176
     1
 62
     5
 63
     7
421
 16777215
176
     1
 74
     1
176
     1
 91
        4
176
     1
 64
     7
176
     1
 65
   257
176
     1
 75
     1
176
     1
175
     1
176
     1
 42
1.0
176
     1
 92
        0
176
     1
 66
   257
176
     1
 43
1.0
176
     1
 76
     1
176
     1
 77
     6
176
     1
 78
     2
176
     1
 67
     7
176
     1
 79
     5
176
     1
170
     0
176
     1
171
     0
176
     1
290
     0
176
     1
 93
        1
176
     1
 44
0.0
176
     1
173
     0
176
     1
  0
VISUALSTYLE
  5
31
102
{ACAD_REACTORS
330
2A
102
}
330
2A
100
AcDbVisualStyle
  2
3D Hidden
 70
     6
177
     2
291
     0
 71
     1
176
     1
 72
     2
176
     1
 73
     2
176
     1
 90
        0
176
     1
 40
-0.6
176
     1
 41
-30.0
176
     1
 62
     5
 63
     7
421
 16777215
176
     1
 74
     2
176
     1
 91
        2
176
     1
 64
     7
176
     1
 65
   257
176
     1
 75
     2
176
     1
175
     1
176
     1
 42
40.0
176
     1
 92
        0
176
     1
 66
   257
176
     1
 43
1.0
176
     1
 76
     1
176
     1
 77
     6
176
     1
 78
     2
176
     1
 67
     7
176
     1
 79
     3
176
     1
170
     0
176
     1
171
     0
176
     1
290
     0
176
     1
 93
        1
176
     1
 44
0.0
176
     1
173
     0
176
     1
  0
VISUALSTYLE
  5
30
102
{ACAD_REACTORS
330
2A
102
}
330
2A
100
AcDbVisualStyle
  2
3dWireframe
 70
     5
177
     2
291
     0
 71
     0
176
     1
 72
     2
176
     1
 73
     0
176
     1
 90
        0
176
     1
 40
-0.6
176
     1
 41
-30.0
176
     1
 62
     5
 63
     7
421
 16777215
176
     1
 74
     1
176
     1
 91
        4
176
     1
 64
     7
176
     1
 65
   257
176
     1
 75
     1
176
     1
175
     1
176
     1
 42
1.0
176
     1
 92
        0
176
     1
 66
   257
176
     1
 43
1.0
176
     1
 76
     1
176
     1
 77
     6
176
     1
 78
     2
176
     1
 67
     7
176
     1
 79
     5
176
     1
170
     0
176
     1
171
     0
176
     1
290
     0
176
     1
 93
        1
176
     1
 44
0.0
176
     1
173
     0
176
     1
  0
VISUALSTYLE
  5
32
102
{ACAD_REACTORS
330
2A
102
}
330
2A
100
AcDbVisualStyle
  2
Basic
 70
     7
177
     2
291
     1
 71
     1
176
     1
 72
     0
176
     1
 73
     1
176
     1
 90
        0
176
     1
 40
-0.6
176
     1
 41
-30.0
176
     1
 62
     5
 63
     7
421
 16777215
176
     1
 74
     0
176
     1
 91
        4
176
     1
 64
     7
176
     1
 65
   257
176
     1
 75
     1
176
     1
175
     1
176
     1
 42
1.0
176
     1
 92
        8
176
     1
 66
     7
176
     1
 43
1.0
176
     1
 76
     1
176
     1
 77
     6
176
     1
 78
     2
176
     1
 67
     7
176
     1
 79
     5
176
     1
170
     0
176
     1
171
     0
176
     1
290
     0
176
     1
 93
        1
176
     1
 44
0.0
176
     1
173
     0
176
     1
  0
VISUALSTYLE
  5
36
102
{ACAD_REACTORS
330
2A
102
}
330
2A
100
AcDbVisualStyle
  2
Brighten
 70
    12
177
     2
291
     1
 71
     2
176
     1
 72
     2
176
     1
 73
     0
176
     1
 90
        0
176
     1
 40
-0.6
176
     1
 41
-30.0
176
     1
 62
     5
 63
     7
421
 16777215
176
     1
 74
     1
176
     1
 91
        4
176
     1
 64
     7
176
     1
 65
   257
176
     1
 75
     1
176
     1
175
     1
176
     1
 42
1.0
176
     1
 92
        8
176
     1
 66
     7
176
     1
 43
1.0
176
     1
 76
     1
176
     1
 77
     6
176
     1
 78
     2
176
     1
 67
     7
176
     1
 79
     5
176
     1
170
     0
176
     1
171
     0
176
     1
290
     0
176
     1
 93
        1
176
     1
 44
50.0
176
     1
173
     0
176
     1
  0
VISUALSTYLE
  5
3A
102
{ACAD_REACTORS
330
2A
102
}
330
2A
100
AcDbVisualStyle
  2
ColorChange
 70
    16
177
     2
291
     1
 71
     2
176
     1
 72
     2
176
     1
 73
     3
176
     1
 90
        0
176
     1
 40
-0.6
176
     1
 41
-30.0
176
     1
 62
     5
 63
     8
421
  8421504
176
     1
 74
     1
176
     1
 91
        4
176
     1
 64
     7
176
     1
 65
   257
176
     1
 75
     1
176
     1
175
     1
176
     1
 42
1.0
176
     1
 92
        8
176
     1
 66
     8
424
  8421504
176
     1
 43
1.0
176
     1
 76
     1
176
     1
 77
     6
176
     1
 78
     2
176
     1
 67
     7
176
     1
 79
     5
176
     1
170
     0
176
     1
171
     0
176
     1
290
     0
176
     1
 93
        1
176
     1
 44
0.0
176
     1
173
     0
176
     1
  0
VISUALSTYLE
  5
34
102
{ACAD_REACTORS
330
2A
102
}
330
2A
100
AcDbVisualStyle
  2
Conceptual
 70
     9
177
     2
291
     0
 71
     3
176
     1
 72
     2
176
     1
 73
     0
176
     1
 90
        0
176
     1
 40
-0.6
176
     1
 41
-30.0
176
     1
 62
     5
 63
     7
421
 16777215
176
     1
 74
     2
176
     1
 91
        2
176
     1
 64
     7
176
     1
 65
   257
176
     1
 75
     1
176
     1
175
     1
176
     1
 42
40.0
176
     1
 92
        8
176
     1
 66
     7
176
     1
 43
1.0
176
     1
 76
     1
176
     1
 77
     6
176
     1
 78
     2
176
     1
 67
     7
176
     1
 79
     3
176
     1
170
     0
176
     1
171
     0
176
     1
290
     0
176
     1
 93
        1
176
     1
 44
0.0
176
     1
173
     0
176
     1
  0
VISUALSTYLE
  5
35
102
{ACAD_REACTORS
330
2A
102
}
330
2A
100
AcDbVisualStyle
  2
Dim
 70
    11
177
     2
291
     1
 71
     2
176
     1
 72
     2
176
     1
 73
     0
176
     1
 90
        0
176
     1
 40
-0.6
176
     1
 41
-30.0
176
     1
 62
     5
 63
     7
421
 16777215
176
     1
 74
     1
176
     1
 91
        4
176
     1
 64
     7
176
     1
 65
   257
176
     1
 75
     1
176
     1
175
     1
176
     1
 42
1.0
176
     1
 92
        8
176
     1
 66
     7
176
     1
 43
1.0
176
     1
 76
     1
176
     1
 77
     6
176
     1
 78
     2
176
     1
 67
     7
176
     1
 79
     5
176
     1
170
     0
176
     1
171
     0
176
     1
290
     0
176
     1
 93
        1
176
     1
 44
-50.0
176
     1
173
     0
176
     1
  0
VISUALSTYLE
  5
39
102
{ACAD_REACTORS
330
2A
102
}
330
2A
100
AcDbVisualStyle
  2
Facepattern
 70
    15
177
     2
291
     1
 71
     2
176
     1
 72
     2
176
     1
 73
     0
176
     1
 90
        0
176
     1
 40
-0.6
176
     1
 41
-30.0
176
     1
 62
     5
 63
     7
421
 16777215
176
     1
 74
     1
176
     1
 91
        4
176
     1
 64
     7
176
     1
 65
   257
176
     1
 75
     1
176
     1
175
     1
176
     1
 42
1.0
176
     1
 92
        8
176
     1
 66
     7
176
     1
 43
1.0
176
     1
 76
     1
176
     1
 77
     6
176
     1
 78
     2
176
     1
 67
     7
176
     1
 79
     5
176
     1
170
     0
176
     1
171
     0
176
     1
290
     0
176
     1
 93
        1
176
     1
 44
0.0
176
     1
173
     0
176
     1
  0
VISUALSTYLE
  5
2B
102
{ACAD_REACTORS
330
2A
102
}
330
2A
100
AcDbVisualStyle
  2
Flat
 70
     0
177
     2
291
     1
 71
     2
176
     1
 72
     1
176
     1
 73
     1
176
     1
 90
        2
176
     1
 40
-0.6
176
     1
 41
30.0
176
     1
 62
     5
 63
     7
421
 16777215
176
     1
 74
     0
176
     1
 91
        4
176
     1
 64
     7
176
     1
 65
   257
176
     1
 75
     1
176
     1
175
     1
176
     1
 42
1.0
176
     1
 92
        8
176
     1
 66
     7
176
     1
 43
1.0
176
     1
 76
     1
176
     1
 77
     6
176
     1
 78
     2
176
     1
 67
     7
176
     1
 79
     5
176
     1
170
     0
176
     1
171
     0
176
     1
290
     0
176
     1
 93
       13
176
     1
 44
0.0
176
     1
173
     0
176
     1
  0
VISUALSTYLE
  5
2C
102
{ACAD_REACTORS
330
2A
102
}
330
2A
100
AcDbVisualStyle
  2
FlatWithEdges
 70
     1
177
     2
291
     1
 71
     2
176
     1
 72
     1
176
     1
 73
     1
176
     1
 90
        2
176
     1
 40
-0.6
176
     1
 41
30.0
176
     1
 62
     5
 63
     7
421
 16777215
176
     1
 74
     1
176
     1
 91
        4
176
     1
 64
     7
176
     1
 65
   257
176
     1
 75
     1
176
     1
175
     1
176
     1
 42
1.0
176
     1
 92
        0
176
     1
 66
   257
176
     1
 43
1.0
176
     1
 76
     1
176
     1
 77
     6
176
     1
 78
     2
176
     1
 67
     7
176
     1
 79
     5
176
     1
170
     0
176
     1
171
     0
176
     1
290
     0
176
     1
 93
       13
176
     1
 44
0.0
176
     1
173
     0
176
     1
  0
VISUALSTYLE
  5
2D
102
{ACAD_REACTORS
330
2A
102
}
330
2A
100
AcDbVisualStyle
  2
Gouraud
 70
     2
177
     2
291
     1
 71
     2
176
     1
 72
     2
176
     1
 73
     1
176
     1
 90
        2
176
     1
 40
-0.6
176
     1
 41
30.0
176
     1
 62
     5
 63
     7
421
 16777215
176
     1
 74
     0
176
     1
 91
        4
176
     1
 64
     7
176
     1
 65
   257
176
     1
 75
     1
176
     1
175
     1
176
     1
 42
1.0
176
     1
 92
        0
176
     1
 66
     7
176
     1
 43
1.0
176
     1
 76
     1
176
     1
 77
     6
176
     1
 78
     2
176
     1
 67
     7
176
     1
 79
     5
176
     1
170
     0
176
     1
171
     0
176
     1
290
     0
176
     1
 93
       13
176
     1
 44
0.0
176
     1
173
     0
176
     1
  0
VISUALSTYLE
  5
2E
102
{ACAD_REACTORS
330
2A
102
}
330
2A
100
AcDbVisualStyle
  2
GouraudWithEdges
 70
     3
177
     2
291
     1
 71
     2
176
     1
 72
     2
176
     1
 73
     1
176
     1
 90
        2
176
     1
 40
-0.6
176
     1
 41
30.0
176
     1
 62
     5
 63
     7
421
 16777215
176
     1
 74
     1
176
     1
 91
        4
176
     1
 64
     7
176
     1
 65
   257
176
     1
 75
     1
176
     1
175
     1
176
     1
 42
1.0
176
     1
 92
        0
176
     1
 66
   257
176
     1
 43
1.0
176
     1
 76
     1
176
     1
 77
     6
176
     1
 78
     2
176
     1
 67
     7
176
     1
 79
     5
176
     1
170
     0
176
     1
171
     0
176
     1
290
     0
176
     1
 93
       13
176
     1
 44
0.0
176
     1
173
     0
176
     1
  0
VISUALSTYLE
  5
38
102
{ACAD_REACTORS
330
2A
102
}
330
2A
100
AcDbVisualStyle
  2
Linepattern
 70
    14
177
     2
291
     1
 71
     2
176
     1
 72
     2
176
     1
 73
     0
176
     1
 90
        0
176
     1
 40
-0.6
176
     1
 41
-30.0
176
     1
 62
     5
 63
     7
421
 16777215
176
     1
 74
     1
176
     1
 91
        4
176
     1
 64
     7
176
     1
 65
   257
176
     1
 75
     7
176
     1
175
     7
176
     1
 42
1.0
176
     1
 92
        8
176
     1
 66
     7
176
     1
 43
1.0
176
     1
 76
     1
176
     1
 77
     6
176
     1
 78
     2
176
     1
 67
     7
176
     1
 79
     5
176
     1
170
     0
176
     1
171
     0
176
     1
290
     0
176
     1
 93
        1
176
     1
 44
0.0
176
     1
173
     0
176
     1
  0
VISUALSTYLE
  5
33
102
{ACAD_REACTORS
330
2A
102
}
330
2A
100
AcDbVisualStyle
  2
Realistic
 70
     8
177
     2
291
     0
 71
     2
176
     1
 72
     2
176
     1
 73
     0
176
     1
 90
        0
176
     1
 40
-0.6
176
     1
 41
-30.0
176
     1
 62
     5
 63
     7
421
 16777215
176
     1
 74
     1
176
     1
 91
        0
176
     1
 64
     7
176
     1
 65
   257
176
     1
 75
     1
176
     1
175
     1
176
     1
 42
1.0
176
     1
 92
        8
176
     1
 66
     8
424
  7895160
176
     1
 43
1.0
176
     1
 76
     1
176
     1
 77
     6
176
     1
 78
     2
176
     1
 67
     7
176
     1
 79
     5
176
     1
170
     0
176
     1
171
     0
176
     1
290
     0
176
     1
 93
       13
176
     1
 44
0.0
176
     1
173
     0
176
     1
  0
VISUALSTYLE
  5
37
102
{ACAD_REACTORS
330
2A
102
}
330
2A
100
AcDbVisualStyle
  2
Thicken
 70
    13
177
     2
291
     1
 71
     2
176
     1
 72
     2
176
     1
 73
     0
176
     1
 90
        0
176
     1
 40
-0.6
176
     1
 41
-30.0
176
     1
 62
     5
 63
     7
421
 16777215
176
     1
 74
     1
176
     1
 91
        4
176
     1
 64
     7
176
     1
 65
   257
176
     1
 75
     1
176
     1
175
     1
176
     1
 42
1.0
176
     1
 92
       12
176
     1
 66
     7
176
     1
 43
1.0
176
     1
 76
     1
176
     1
 77
     6
176
     1
 78
     2
176
     1
 67
     7
176
     1
 79
     5
176
     1
170
     0
176
     1
171
     0
176
     1
290
     0
176
     1
 93
        1
176
     1
 44
0.0
176
     1
173
     0
176
     1
  0
ENDSEC
  0
EOF
